PrimaNota.ru - самый крупный в мире бесплатный архив песенных текстов, аккордов, табулатур и нот


Misc Unsigned Bands - A Child Called It - You Cant Shoot A Duck During Deer Season - таба, видео

Регистрация Запомнить меня
Войти через:  Facebook Google Twitter Vk Yandex Mail.ru

Misc Unsigned Bands - A Child Called It - You Cant Shoot A Duck During Deer Season - таба, видео

Печатать
Просмотров: 63
guitar 1
D|-----------------------------------------------------------------------|
A|-44445555666655554444555566665555--------------------------------------|
F|-77778888999988887777888899998888--------------------------------------|x4
C|-----------------------------------------------------------------------|
G|---------------------------------------12~-5~--------------------------|
C|---------------------------------------12~-5~--------------------------|

C|-----------------------------------------------------------------------|
G|-0-0-0------0-0-0-0-0-0-----------12~--5~------------------------------|X4
C|-0-0-0------0-0-0-0-0-0-----------12~--5~------------------------------|

C|-------------------|
G|-0-0---0--0---0----|
C|-0-0---0--0---0----|

RIFF A                            -----
D|-------------------------------|     |
A|-------------------------------|     |
F|---------8-----7811------------|x3   |
C|-----057-----------------------|     | 
G|-0-0--------0------------------|     } X2 
C|-0-0--------0------------------|     |
                                       |
C|----------------------------|        | 
G|-5--5-5----1--1-1-----------|        | 
C|-5--5-5----1--1-1-----------|        |
                                  -----

                                  -----
D|----------------------------|        |
A|----------------------------|        
F|----80110801107011070110----| X3     |
C|----------------------------|        
G|----------------------------|        |X2
C|----------------------------|
                                       |
C|----------------------------|        
G|-5--5-5----1--1-1-----------|        |
C|-5--5-5----1--1-1-----------|        
                                  -----

D|----------------------1213------|        
A|------------------1213----------|        
F|--------------------------------| 
C|--------------------------------|     
G|-000-000------------------------|       
C|-000-000------------------------|

               s         s  s        
D|-----------------------------------|     
A|------------4-6------10-9--10------|        
F|------------7-8------13-12-13------| 
C|-----------------------------------|X3      
G|-000-000----------0----------------|       
C|-000-000----------0----------------|    ---
                                             |
D|----------------------------------|        |X2
A|------------14----16T--14---------|        |       
F|------------17----19T--17---------|     ---
C|---------------16-----------------|      
G|-000-000--------------------------|       
C|-000-000--------------------------|

D|----------------------------|     
A|----------------------------|        
F|----------------------------| 
C|-------------6t5t-----------| X2     
G|-------8t7t5t---------------|       
C|-9t7t6t---------------------|

D|------------------------|     
A|------------------------|        
F|------------------------| 
C|------------------------|      
G|-8t-5t4t---4t5t---------|       
C|--------6t--------------|

D|----------------------------|     
A|----------------------------|        
F|----------------------------| 
C|-------------6t5t-----------| X4     
G|-------8t7t5t---------------|       
C|-9t7t6t---------------------|

D|------------------------|     
A|------------------------|        
F|------------------------| 
C|------------------------|X2 then stop    
G|-8t-5t4t---4t5t---------|       
C|--------6t--------------|

D|------------------------|     
A|------------------------|        
F|------------------------| 
C|------------------------|X2      
G|-8t-5t4t---4t5t---------|       
C|--------6t--------------|

end on 

D|------------------------|     
A|------------------------|        
F|------------------------| 
C|------------------------|      
G|-8t-5t4t-6~-------------|       
C|---------6~-------------|

t = tremelo
T = tap
s = slide


Добавлено: 30.10.2013
Другие материалы по этой песне:
  • Аккорды и текст

Страница создана 30.10.2013
http://primanota.ru/misc-unsigned-bands/a-child-called-it-you-cant-shoot-a-duck-during-deer-season-chords.htm
Привет, Гость.
Предлагаем пройти революционный курс по гитаре.
Подарок от PrimaNota.Ru, забирай!