PrimaNota.ru - самый крупный в мире бесплатный архив песенных текстов, аккордов, табулатур и нот


Misc Unsigned Bands - 4th Degree Burn - 48719023 - таба

Регистрация Запомнить меня
Войти через:  Facebook Google Twitter Vk Yandex Mail.ru

Misc Unsigned Bands - 4th Degree Burn - 48719023 - таба

Печатать
Просмотров: 55
                                     48719\+023!
                             As recorded by 4th Degree Burn
                         (From the 2007 Album WHERE WE'VE BEEN)

Drop C# (C# Ab C# F# Bb Eb)
 Intro
    C5                                       
 3/4
 Gtr. 1
    PM---|                PM---|           
|----------------------|----------------------|
|o---------------------|----------------------|
|---------12^11--------|---------12^11--------|
|---10-10-------12^11--|--10-10--------12^11--|
|o--10-10--------------|--10-10---------------|
|---10-10--------------|--10-10---------------|
|
|   Gtr. 2
|   PM---|                PM---|          
|----------------------|----------------------|
|o---------------------|----------------------|
|----------------------|----------------------|
|---10-10--------------|--10-10---------------|
|o--10-10--------------|--10-10---------------|
|---10-10--------------|--10-10---------------|

  

   F#5             F5

   PM-|            PM-|
|---------------|----------------|
|---------------|---------------o|
|------6^4-6s8--|------6^4-6s8---|
|--4-4----------|--3-3-----------|
|--4-4----------|--3-3----------o|
|--4-4----------|--3-3-----------|
|
|  PM-|            PM-|
|---------------|----------------|
|---------------|---------------o|
|---------------|----------------|
|--4-4----------|--3-3-----------|
|--4-4----------|--3-3----------o|
|--4-4----------|--3-3-----------|



    C5         D5 Eb5    C5         Bb5   F#5     A5 Ab5   F5        F#5
   3/4
   Gtr. 1 and 2
        PM---|               PM---|          PM-|             PM-|              
|---------------------|----------------|----------------|---------------|
|o--------------------|----------------|----------------|---------------|
|---------------------|----------------|----------------|---------------|
|---10--10-10--12^13--|--10--10-10--8--|--4--4-4--7--6--|--3--3-3--3^4--|
|o--10--10-10--12^13--|--10--10-10--8--|--4--4-4--7--6--|--3--3-3--3^4--|
|---10--10-10--12^13--|--10--10-10--8--|--4--4-4--7--6--|--3--3-3--3^4--|



   C5         D5 Eb5    C5         Bb5   F#5     A5 Ab5   F5 F#5 F5  F#o(no3)
                                                         4/4 
       PM---|               PM---|          PM-|          PM-|   PM-|       
|--------------------|----------------|----------------|-----------------|
|--------------------|----------------|----------------|----------------o|
|--------------------|----------------|----------------|------6------5---|
|--10--10-10--12^13--|--10--10-10--8--|--4--4-4--7--6--|------4------4---|
|--10--10-10--12^13--|--10--10-10--8--|--4--4-4--7--6--|--3-3----3-3----o|
|--10--10-10--12^13--|--10--10-10--8--|--4--4-4--7--6--|--3-3----3-3-----|
                                                                


    Amaj7#11               Ab5   Dmadd10
  4/4 w/ half time feel

|-----------------------------|-------------------------------|
|o--9-------9-----9--9--9--9--|----------10----10-------10----|
|---8-------8-----8--8--8--8--|----------9-----9-----9--9-----|
|---7--7-7--7--7--7--7--7--6--|-----0-7--7-----7--7--7--7--0--|
|o--7--7-7--7--7--------7--6--|-----0-8--8--8--8--8--8--8--0--|
|---7--7-7--7--7--------7--6--|--0--0-0--0--0--0--0--0--0--0--|
|
|
|-----------------------------|-------------------------------|
|o----------------------------|-------------------------------|
|-----------------------------|-------------------------------|
|---7-------7-----7--7--7--6--|----------3-----3--------3--0--|
|o--7--7-7--7--7--7--7--7--6--|--0--0-0--0--0--0--0--0--0--0--|
|---7--7-7--7--7--7--7--7--6--|--0--0-0--0--0--0--0--0--0--0--|


   G7                                Em6

|----------7-----7--------7-------|----------3-----3--------3--------|
|----------6--6--6--------6-------|----------2-----2--------2-------o|
|----------7--7--7--7--7--7-------|--4----4--4--4--4--4--4--4--------|
|--5--5-5--5--5--5--5--5--5--x-x--|--2--2-2--2--2--2--2--2--2--x-x---|
|--5--5-5--5--5--5--5--5--5--x-x--|--2--2-2--2--2--2--2--2--2--x-x--o|
|--5--5-5--5--5--5--5--5--5--x-x--|--2--2-2--2--2--2--2--2--2--x-x---|
|
|
|---------------------------------|----------------------------------|
|---------------------------------|---------------------------------o|
|---------------------------------|----------------------------------|
|----------5-----5--------5--x-x--|--5-------5-----5--------5--x-x---|
|--5--5-5--5--5--5--5--5--5--x-x--|--2--2-2--2--2--2--2--2--2--x-x--o|
|--5--5-5--5--5--5--5--5--5--x-x--|--2--2-2--2--2--2--2--2--2--x-x---|



    C5                                       

    PM---|                PM---|           
|----------------------|----------------------|
|o---------------------|----------------------|
|---------12^11--------|---------12^11--------|
|---10-10-------12^11--|--10-10--------12^11--|
|o--10-10--------------|--10-10---------------|
|---10-10--------------|--10-10---------------|
|
|   PM---|                PM---|          
|----------------------|----------------------|
|o---------------------|----------------------|
|----------------------|----------------------|
|---10-10--------------|--10-10---------------|
|o--10-10--------------|--10-10---------------|
|---10-10--------------|--10-10---------------|



   F#5             F5

   PM-|            PM-|
|---------------|----------------|
|---------------|---------------o|
|------6^4-6s8--|------6^4-6s8---|
|--4-4----------|--3-3-----------|
|--4-4----------|--3-3----------o|
|--4-4----------|--3-3-----------|
|
|  PM-|            PM-|
|---------------|----------------|
|---------------|---------------o|
|---------------|----------------|
|--4-4----------|--3-3-----------|
|--4-4----------|--3-3----------o|
|--4-4----------|--3-3-----------|



    C5         D5 Eb5    C5         Bb5   F#5     A5 Ab5   F5        F#5
   3/4
  
        PM---|               PM---|          PM-|             PM-| 
|---------------------|----------------|----------------|---------------|
|o--------------------|----------------|----------------|---------------|
|---------------------|----------------|----------------|---------------|
|---10--10-10--12^13--|--10--10-10--8--|--4--4-4--7--6--|--3--3-3--3^4--|
|o--10--10-10--12^13--|--10--10-10--8--|--4--4-4--7--6--|--3--3-3--3^4--|
|---10--10-10--12^13--|--10--10-10--8--|--4--4-4--7--6--|--3--3-3--3^4--|



   C5         D5 Eb5    C5         Bb5   F#5     A5 Ab5   F5 F#5 F5  F#o(no3)
                                                         4/4 
       PM---|               PM---|          PM-|          PM-|   PM-|       
|--------------------|----------------|----------------|-----------------|
|--------------------|----------------|----------------|----------------o|
|--------------------|----------------|----------------|------6------5---|
|--10--10-10--12^13--|--10--10-10--8--|--4--4-4--7--6--|------4------4---|
|--10--10-10--12^13--|--10--10-10--8--|--4--4-4--7--6--|--3-3----3-3----o|
|--10--10-10--12^13--|--10--10-10--8--|--4--4-4--7--6--|--3-3----3-3-----|



  4/4 w/ half time feel
    Amaj7#11               Ab5   Dmadd10

|-----------------------------|-------------------------------|
|o--9-------9-----9--9--9--9--|----------10----10-------10----|
|---8-------8-----8--8--8--8--|----------9-----9-----9--9-----|
|---7--7-7--7--7--7--7--7--6--|-----0-7--7-----7--7--7--7--0--|
|o--7--7-7--7--7--------7--6--|-----0-8--8--8--8--8--8--8--0--|
|---7--7-7--7--7--------7--6--|--0--0-0--0--0--0--0--0--0--0--|
|
|
|-----------------------------|-------------------------------|
|o----------------------------|-------------------------------|
|-----------------------------|-------------------------------|
|---7-------7-----7--7--7--6--|----------3-----3--------3--0--|
|o--7--7-7--7--7--7--7--7--6--|--0--0-0--0--0--0--0--0--0--0--|
|---7--7-7--7--7--7--7--7--6--|--0--0-0--0--0--0--0--0--0--0--|


   G7                                Em6

|----------7-----7--------7-------|----------3-----3--------3--------|
|----------6--6--6--------6-------|----------2-----2--------2-------o|
|----------7--7--7--7--7--7-------|--4----4--4--4--4--4--4--4--------|
|--5--5-5--5--5--5--5--5--5--x-x--|--2--2-2--2--2--2--2--2--2--x-x---|
|--5--5-5--5--5--5--5--5--5--x-x--|--2--2-2--2--2--2--2--2--2--x-x--o|
|--5--5-5--5--5--5--5--5--5--x-x--|--2--2-2--2--2--2--2--2--2--x-x---|
|
|
|---------------------------------|----------------------------------|
|---------------------------------|---------------------------------o|
|---------------------------------|----------------------------------|
|----------5-----5--------5--x-x--|--5-------5-----5--------5--x-x---|
|--5--5-5--5--5--5--5--5--5--x-x--|--2--2-2--2--2--2--2--2--2--x-x--o|
|--5--5-5--5--5--5--5--5--5--x-x--|--2--2-2--2--2--2--2--2--2--x-x---|


    Em6

|-----------3-----3--------3--------|
|o----------2-----2--------2-------o|
|---4----4--4--4--4--4--4--4--------|
|---2--2-2--2--2--2--2--2--2--x-x---|
|o--2--2-2--2--2--2--2--2--2--x-x--o|
|---2--2-2--2--2--2--2--2--2--x-x---|
|
|
|-----------------------------------|
|o---------------------------------o|
|-----------------------------------|
|---5-------5-----5--------5--x-x---|
|o--2--2-2--2--2--2--2--2--2--x-x--o|
|---2--2-2--2--2--2--2--2--2--x-x---|



    C5                                       

    PM---|                PM---|           
|----------------------|----------------------|
|o---------------------|----------------------|
|---------12^11--------|---------12^11--------|
|---10-10-------12^11--|--10-10--------12^11--|
|o--10-10--------------|--10-10---------------|
|---10-10--------------|--10-10---------------|
|
|   PM---|                PM---|          
|----------------------|----------------------|
|o---------------------|----------------------|
|----------------------|----------------------|
|---10-10--------------|--10-10---------------|
|o--10-10--------------|--10-10---------------|
|---10-10--------------|--10-10---------------|



   F#5             F5

   PM-|            PM-|
|---------------|----------------|
|---------------|---------------o|
|------6^4-6s8--|------6^4-6s8---|
|--4-4----------|--3-3-----------|
|--4-4----------|--3-3----------o|
|--4-4----------|--3-3-----------|
|
|  PM-|            PM-|
|---------------|----------------|
|---------------|---------------o|
|---------------|----------------|
|--4-4----------|--3-3-----------|
|--4-4----------|--3-3----------o|
|--4-4----------|--3-3-----------|


    A5                      Ab5   Dm
  4/4 w/ half time feel
  Gtr. 2
    
|------------------------------|-------------------------------|
|------------------------------|-------------------------------|
|------------------------------|-------------------------------|
|---7--------7-----7--7--7--6--|----------3-----3--------3--0--|
|---7--7--7--7--7--7--7--7--6--|--0--0-0--0--0--0--0--0--0--0--|
|---7--7--7--7--7--7--7--7--6--|--0--0-0--0--0--0--0--0--0--0--|
|
| Gtr. 1
|
|------------------------------|-------------------------------|
|------------------------------|-------------------------------|
|-14~~-14----14-16b(17)-14--13-|-----------------------17b(19)-|
|---------15-------------------|-/15~-14^15^14-----------------|
|------------------------------|---------------15-14~----------|
|------------------------------|-------------------------------|


   G5                                Em

|---------------------------------|---------------------------------|
|---------------------------------|---------------------------------|
|---------------------------------|---------------------------------|
|----------5-----5--------5--x-x--|--5-------5-----5--------5--x-x--|
|--5--5-5--5--5--5--5--5--5--x-x--|--2--2-2--2--2--2--2--2--2--x-x--|
|--5--5-5--5--5--5--5--5--5--x-x--|--2--2-2--2--2--2--2--2--2--x-x--|
|
|
|---------------------------------|------------------15b(17)pb15-12-|
|--18^20^18^20^18^20-18-----------|-17~--17-15-13-12----------------|
|-----------------------19-17-16~-|---------------------------------|
|---------------------------------|---------------------------------|
|---------------------------------|---------------------------------|
|---------------------------------|---------------------------------|


 
    A5                            Ab5   Dm
    
|------------------------------------|-------------------------------------|
|------------------------------------|-------------------------------------|
|------------------------------------|-------------------------------------|
|---7----------7-------7---7---7--6--|--------------3-------3--------3--0--|
|---7---7--7---7---7---7---7---7--6--|---0---0--0---0---0---0--0--0--0--0--|
|---7---7--7---7---7---7---7---7--6--|---0---0--0---0---0---0--0--0--0--0--|
|
|                                       TP       TP
|--15b(17)~-15-13-12-----------------|-------------------------------------|
|--------------------15-13-12--------|--------------12^13^12----12/13/15~--|
|-----------------------------12^13~-|-/14-14\--/14----------14------------|
|------------------------------------|-------------------------------------|
|------------------------------------|-------------------------------------|
|------------------------------------|-------------------------------------|



    G5                                  Em

|------------------------------------|---------------------------------|
|------------------------------------|---------------------------------|
|------------------------------------|---------------------------------|
|-------------5-----5--------5--x-x--|--5-------5-----5--------5--x-x--|
|---5---5--5--5--5--5--5--5--5--x-x--|--2--2-2--2--2--2--2--2--2--x-x--|
|---5---5--5--5--5--5--5--5--5--x-x--|--2--2-2--2--2--2--2--2--2--x-x--|
|
|
|-19-17-15(4x)-----------------------|---------------------------------|
|--------------18-17-15-13-----------|---------------------------------|
|--------------------------14-12-10--|-9~~--9^10^9-10--12--10-9----9~--|
|------------------------------------|--------------------------12-----|
|------------------------------------|---------------------------------|
|------------------------------------|---------------------------------|



   C5            

|---------------------|----------------------|
|---------------------|----------------------|
|--------/\-----/\----|--------/\-----/\-----|
|--------/\-----/\----|--------/\-----/\-----|
|--------/\---- /\----|--------/\-----/\-----|
|--------/\-----/\----|--------/\-----/\-----|
|
|  PM---|                PM---|      
|---------------------|----------------------|
|---------------------|----------------------|
|---------------------|----------------------|
|--10-10--------------|--10-10---------------|
|--10-10--------------|--10-10---------------|
|--10-10--------------|--10-10---------------|



   F#5              F5

|----------------|----------------|
|----------------|----------------|
|------/\----/\--|------/\----/\--|
|------/\----/\--|------/\----/\--|
|------/\----/\--|------/\----/\--|
|------/\----/\--|------/\----/\--|
|
|  PM-|             PM-|
|----------------|----------------|
|----------------|----------------|
|----------------|----------------|
|--4-4-----------|--3-3-----------|
|--4-4-----------|--3-3-----------|
|--4-4-----------|--3-3-----------|



   C5                    

|---------------------|----------------------|
|---------------------|----------------------|
|--------/\-----/\----|--------/\-----/\-----|
|--------/\-----/\----|--------/\-----/\-----|
|--------/\---- /\----|--------/\-----/\-----|
|--------/\-----/\----|--------/\-----/\-----|
|
|  PM---|                PM---|                              
|---------------------|----------------------|
|---------------------|----------------------|
|---------------------|----------------------|
|--10-10--------------|--10-10---------------|
|--10-10--------------|--10-10---------------|
|--10-10--------------|--10-10---------------|


   
   F#5              F5

|----------------|----------------|
|----------------|----------------|
|------/\----/\--|----------------|
|------/\----/\--|--3----(3)------|
|------/\----/\--|--3----(3)------|
|------/\----/\--|--3----(3)------|
|
|             
|----------------|----------------|
|----------------|----------------|
|----------------|----------------|
|--4-4-----------|--3----(3)------|
|--4-4-----------|--3----(3)------|
|--4-4-----------|--3----(3)------|




  4/4 w/ half time feel
    Amaj7#11               Ab5   Dmadd10

|-----------------------------|-------------------------------|
|o--9-------9-----9--9--9--9--|----------10----10-------10----|
|---8-------8-----8--8--8--8--|----------9-----9-----9--9-----|
|---7--7-7--7--7--7--7--7--6--|-----0-7--7-----7--7--7--7--0--|
|o--7--7-7--7--7--------7--6--|-----0-8--8--8--8--8--8--8--0--|
|---7--7-7--7--7--------7--6--|--0--0-0--0--0--0--0--0--0--0--|
|
|
|-----------------------------|-------------------------------|
|o----------------------------|-------------------------------|
|-----------------------------|-------------------------------|
|---7-------7-----7--7--7--6--|----------3-----3--------3--0--|
|o--7--7-7--7--7--7--7--7--6--|--0--0-0--0--0--0--0--0--0--0--|
|---7--7-7--7--7--7--7--7--6--|--0--0-0--0--0--0--0--0--0--0--|


   G7                                Em6

|----------7-----7--------7-------|----------3-----3--------3--------|
|----------6--6--6--------6-------|----------2-----2--------2-------o|
|----------7--7--7--7--7--7-------|--4----4--4--4--4--4--4--4--------|
|--5--5-5--5--5--5--5--5--5--x-x--|--2--2-2--2--2--2--2--2--2--x-x---|
|--5--5-5--5--5--5--5--5--5--x-x--|--2--2-2--2--2--2--2--2--2--x-x--o|
|--5--5-5--5--5--5--5--5--5--x-x--|--2--2-2--2--2--2--2--2--2--x-x---|
|
|
|---------------------------------|----------------------------------|
|---------------------------------|---------------------------------o|
|---------------------------------|----------------------------------|
|----------5-----5--------5--x-x--|--5-------5-----5--------5--x-x---|
|--5--5-5--5--5--5--5--5--5--x-x--|--2--2-2--2--2--2--2--2--2--x-x--o|
|--5--5-5--5--5--5--5--5--5--x-x--|--2--2-2--2--2--2--2--2--2--x-x---|



    C5                                       

    PM---|                PM---|           
|----------------------|----------------------|
|o---------------------|----------------------|
|---------12^11--------|---------12^11--------|
|---10-10-------12^11--|--10-10--------12^11--|
|o--10-10--------------|--10-10---------------|
|---10-10--------------|--10-10---------------|
|
|   PM---|                PM---|          
|----------------------|----------------------|
|o---------------------|----------------------|
|----------------------|----------------------|
|---10-10--------------|--10-10---------------|
|o--10-10--------------|--10-10---------------|
|---10-10--------------|--10-10---------------|



   F#5             F5

   PM-|            PM-|
|---------------|----------------|
|---------------|---------------o|
|------6^4-6s8--|------6^4-6s8---|
|--4-4----------|--3-3-----------|
|--4-4----------|--3-3----------o|
|--4-4----------|--3-3-----------|
|
|  PM-|            PM-|
|---------------|----------------|
|---------------|---------------o|
|---------------|----------------|
|--4-4----------|--3-3-----------|
|--4-4----------|--3-3----------o|
|--4-4----------|--3-3-----------|



    C5

|----------------|
|----------------|
|----------------|
|--10\-----------|
|--10\-----------|
|--10\-----------|
|
|
|----------------|
|----------------|
|----------------|
|--10\-----------|
|--10\-----------|
|--10\-----------|

Добавлено: 07.02.2014
Другие материалы по этой песне:
  • Аккорды и текст

Страница создана 07.02.2014
http://primanota.ru/misc-unsigned-bands/4th-degree-burn-48719023-chords.htm
Привет, Гость.
Предлагаем пройти революционный курс по гитаре.
Подарок от PrimaNota.Ru, забирай!