PrimaNota.ru - самый крупный в мире бесплатный архив песенных текстов, аккордов, табулатур и нот


Misc Unsigned Bands - 4 20 - Killing Me - таба, видео

Регистрация Запомнить меня
Войти через:  Facebook Google Twitter Vk Yandex Mail.ru

Misc Unsigned Bands - 4 20 - Killing Me - таба, видео

Печатать
Просмотров: 69
KILLING ME - B. HUBBELL
-----------------------------------------------------------------
Tabbed by:B. HUBBELL
Email:Wolfpack251777@alltel.net

Tuning:EADGBe
Format Of The Song
Part A (Intro Riff)  X8 
Part B (Verse Riff)  X10
Part C (Verse Riff)  X1
Part D (Chores Riff) X6
Part A (Bridge Riff) X2
Part B (Verse Riff)  X4
Part C (Verse Riff)  X1
Part D (Chores Riff) X6
Part E (Hyper Riff)  X2
Part D (Chores Riff) X4 - Solo, 
Part E (Hyper Riff)  X2
Part D (chores Riff) Till Fade


Intro/Bridge Riff:
Part A
e|------------------------------------------------------|
B|------------------------------------------------------|
G|--4--4--4--4--4--4--4--4--4--4--4--4------------------|
D|--4--4--4--4--4--4--4--4--4--4--4--4--4--4--4--(4)----|
A|--2--2--2--2--2--2--2--2--0--0--0--0--4--4--4---------|
E|----------------3--3--3--3---------------2--2--2------|

  Verse Riff                                                       
    "Feel My Eyes Upon you ........."
Part B: play 10 times               
e|--------------------------------------|
B|-----------------------------------0--|
G|------0--------0--------0-------3-----|
D|----4---4---4----4---4---4---4--------|
A|--2-------0---------------------------|
E|---------------------3-------2--------|

Part C: Palm Mute This Part                         (Open Harmonic)      
e|--------------------------------------------------|---------------|
B|--------------------------------------------------|---------------|
G|---------------------------------2--2--2--2--2--2-|---------------|
D|-----5--5--5--5--5--5---5--5--2--2--2--2--2--2----|---------------|
A|-----5--5--5--5--5--5---5--5--0--0--0--0--0--0----|---0--(3)--0---|
E|-----3--3--3--3--3--3---3--3----------------------|---------------|

Chorus Riff
"Why are you here...........In my hell"
Part D
e|--------------------------------------|
B|--------------------------------------|
G|--4--4-----------------7--7--6--7-----|
D|--4--4--4--5----------7--7--6--7------|
A|--2--2--4--5----------5--5--4--5------|
E|---------2--3-------------------------|
Hyper Riff
Part E: Heavy Palm Muting X3                 (After 3rd Run,Let Ring
e|------------------------------------------|---------------------------------|
B|------------------------------------------|---------------------------------|
G|---4--4-----4--4-----4--4-----4--4--4-----|-----7----------------9----------|
D|---4--4-----4--4-----4--4-----4--4--4-----|-----7----------------9----------|
A|---2--2-----2--2-----2--2-----2--2--3-----|-----5----------------7----------|
E|------------------------------------------|-----5----------------7----------|

Solo
        
e|---------------------------------------------------------|
B|---12--12-----------15--15--14--15---12--12--15--17------|
G|------------11--12---------------------------------------|
D|---------------------------------------------------------|
A|---------------------------------------------------------|
E|---------------------------------------------------------|

e|------------------14------14--17-/--17-/--17-------------|
B|---17--17--17-/----17-/-----------------------14--15-----|
G|---------------------------------------------------------|
D|---------------------------------------------------------|
A|---------------------------------------------------------|
E|---------------------------------------------------------|

e|---------------------------------------------------------|
B|--15--15--15--15--15-\--14--14--14-\--12--12--12--12-\---|
G|---------------------------------------------------------|
D|---------------------------------------------------------|
A|---------------------------------------------------------|
E|---------------------------------------------------------|
                                                             (let ring to fade)
e|---------------------------------------------------------|
B|---10--10--10--10-\--8--8-/-10-/-(12)--------------------|
G|---------------------------------------------------------|
D|---------------------------------------------------------|
A|---------------------------------------------------------|
E|---------------------------------------------------------|


Lyrics
Feel my eyes upon you, As I look into your soul
Feel the pain within me, Feel my touch oh so cold
Give me strenth to go on from here, Give me words to say what I need to
Give me answers to my questions, These answers I need from you

Why are you here, in my hell, Stuck inside like a prison cell
Trust in me,why cant you see, Stuck inside, Your killing me

Do as I say not as I do, All this pain I feel from you
Why do you twist everything I say,I don't want you near me any way

Why are you here, in my hell, Stuck inside like a prison cell
Trust in me,why cant you see, Stuck inside, Your killing me
Your killing me,Killing me.


Thats pretty much it.this is my first tab so take it easy on me.....
i wrote this song about 2 years ago...check it out it's fun to play
| / slide up
| \ slide down
| h hammer-on
| p pull-off
| ~ vibrato
| (#) harmonic
| x Mute note
Добавлено: 01.08.2013
Другие материалы по этой песне:
  • Аккорды и текст

Страница создана 01.08.2013
http://primanota.ru/misc-unsigned-bands/4-20-killing-me-chords.htm
Привет, Гость.
Предлагаем пройти революционный курс по гитаре.
Подарок от PrimaNota.Ru, забирай!