PrimaNota.ru - самый крупный в мире бесплатный архив песенных текстов, аккордов, табулатур и нот


Misc Unsigned Bands - 2022 Phan Song - таба

Регистрация Запомнить меня
Войти через:  Facebook Google Twitter Vk Yandex Mail.ru

Misc Unsigned Bands - 2022 Phan Song - таба

Печатать
Просмотров: 161
-------------------------------------------------------------------------------
                             2022 (phan song) - Eden and Katherine
-------------------------------------------------------------------------------
Tabbed by: Jillian (spaceboylester.tumblr.com)
Tuning: standard, capo 2nd

Hey!this song is by a girl on YouTube named Eden (Like Totally Eden). Her and her friend 
Katherine
played this in a video and I really liked it so I tabbed it. ALL NOTES RELATIVE TO CAPO

It's basically just holding chords and finger picking-pretty easy. Have fun!



Tuning: standard, capo 2nd


VERSE

              D                                             G       
e|-------------2----------2------------------------------------
B|------3--------3---------------------------------------------
G|----------------------------------------0------------0-------
D|-0-------0--------0---------------2------------2------------
A|--------------------------------------------------------------
E|------------------------------3-------3-------------3-------

                A                                                      
e|---------------------------------------
B|----------------2----------2----------
G|---------2-----------2----------------
D|---------------------------------------
A|-----0-------0----------0-------------
E|----------------------------------------


CHORUS
    D
You hold me in your arms
   bm
And I'll hold you back
        A
As the dark sky
         
Fades to black 

   D
My tired eyes are 
bm
Blinded by the
A
Fairy lights

    G
How far would I have gotten
   D
Without you here
bm
But times have been forgotten

For years and years

   C
My life is beginning 
   A
To piece together with you
   G               D
I could've made it on my own
bm
But you were like
   A
My stepping stones
C
I'm looking forward
   A
To 2022

e|-2---0-----|
B|---3---0---|
G|-----------|
D|-----------|
A|-----------|
E|-----------|

With you

VERSE

              D                                                 G           
e|-------------2----------2------------------------------------
B|------3--------3---------------------------------------------
G|----------------------------------------0------------0-------
D|-0-------0--------0---------------2------------2------------
A|--------------------------------------------------------------
E|------------------------------3-------3-------------3-------

                A                                                       D
e|--------------------------------------------------------2-----------2---
B|----------------2----------2------------------3----------3--------------
G|---------2-----------2---------------------------------------------------
D|-------------------------------------------0-------0-----------0---------
A|-----0-------0----------0------------------------------------------------
E|--------------------------------------------------------------------------
CHORUS 

    D
You hold me in your arms
   bm
And I'll hold you back
        A
As the dark sky
         
Fades to black 

   D
My tired eyes are 
bm
Blinded by the
A
Fairy lights

    G
How far would I have gotten
   D
Without you here
bm
But times have been forgotten
    A
For years and years

   C
My life is beginning 
   A
To piece together with you
   G               D
I could've made it on my own
bm
But you were like
   A
My stepping stones
C
I'm looking forward
   A
To 2022

With you 

REPEAT

    D
You hold me in your arms
   bm
And I'll hold you back
        A
As the dark sky
         
Fades to black 

   D
My tired eyes are 
bm
Blinded by the
A
Fairy lights

    G
How far would I have gotten
   D
Without you here
bm
But times have been forgotten

For years and years

   C
My life is beginning 
   A
To piece together with you
   G               D
I could've made it on my own
bm
But you were like
   A
My stepping stones
C
I'm looking forward
   A
To 2022

With you

BRIDGE 

C, bm, D, F, C, G

    D
You hold me in your arms
   bm
And I'll hold you back
        A
As the dark sky
         
Fades to black 

   D
My tired eyes are 
bm
Blinded by the
A
Fairy lights

    G
How far would I have gotten
   D
Without you here
bm
But times have been forgotten
    A
For years and years

   C
My life is beginning 
   A
To piece together with you
   G               D
I could've made it on my own
bm
But you were like
   A
My stepping stones
C
I'm looking forward
   A
To 2022

With you 

REPEAT

    D
You hold me in your arms
   bm
And I'll hold you back
        A
As the dark sky
         
Fades to black 

   D
My tired eyes are 
bm
Blinded by the
A
Fairy lights

    G
How far would I have gotten
   D
Without you here
bm
But times have been forgotten

For years and years

   C
My life is beginning 
   A
To piece together with you
   G               D
I could've made it on my own
bm
But you were like
   A
My stepping stones
C
I'm looking forward
   A
To 2022

e|-2---0-----|
B|---3---0---|
G|-----------|
D|-----------|
A|-----------|
E|-----------|

With you


VERSE
              D                                 G                                   
e|-------------2----------2------------------------------------
B|------3--------3---------------------------------------------
G|----------------------------------------0------------0-------
D|-0-------0--------0---------------2------------2------------
A|--------------------------------------------------------------
E|------------------------------3-------3-------------3-------

                A                                                       D
e|--------------------------------------------------------2-----------2---
B|----------------2----------2------------------3----------3--------------
G|---------2-----------2---------------------------------------------------
D|-------------------------------------------0-------0-----------0---------
A|-----0-------0----------0------------------------------------------------
E|--------------------------------------------------------------------------

OUTRO (not totally sure about this part)
 
     G       A        bm       D        G          C       A
e|-------------------------------------------------------------------------|
B|-----0-------2--------3--------3--------0---------1--------2--------------------|
G|---0-------2--------4--------2--------0---------0--------2-----------------------|
D|------------------------------------------------------------------------|
A|--2-------0--------2-------0--------2---------3--------0-----------------------|
E|---------------------------------------------------------------------------| 

    G
With you









Добавлено: 12.10.2015
Другие материалы по этой песне:
  • Аккорды и текст

Страница создана 12.10.2015
http://primanota.ru/misc-unsigned-bands/2022-phan-song-chords.htm
Привет, Гость.
Предлагаем пройти революционный курс по гитаре.
Подарок от PrimaNota.Ru, забирай!