PrimaNota.ru - самый крупный в мире бесплатный архив песенных текстов, аккордов, табулатур и нот


Misc Unsigned Bands - 2 Blyga Lppar - Jag Vill Ha Dig Baby Utan Klder - таба

Регистрация Запомнить меня
Войти через:  Facebook Google Twitter Vk Yandex Mail.ru

Misc Unsigned Bands - 2 Blyga Lppar - Jag Vill Ha Dig Baby Utan Klder - таба

Печатать
Просмотров: 103
2 Blyga Läppar - Jag vill ha dig baby (utan kläder)

Här har ni hela låten(dock inte solot, lite krångligt för min del) 

Hoppas det smakar och ta det lugnt i sommar! ;-)



Chords...

e|--5----x----2----10----|
b|--5----x----2----10----|
g|--6----1----2----11----|
d|--7----2----4----12----|
a|--7----2----4----12----|
e|--5----x----2----10----|

Intro...

e|-----------------------------------------------------------------------|
b|-----------------------------------------------------------------------|
g|---4----6-6-6---4-6----------------------------------------------------|
d|---7----7-7-7---7-7--9---9-9-9-7-6--11-11-11-11-9-11--7---7-7-7-6-4----|
a|---------------------7---7-7-7-7-7--9--9--9--9--9-9---5---5-5-5-5-6----|
e|-----------------------------------------------------------------------|


Verse...

A                 E       F#m            D
Jag drömde här om natten, om blommor och bin
A                   E     F#m                D
Ja det var som i en saga, eller slutet på en film
A              E                        F#m
Vakna upp till musik, stövlar fram lite burdus 
             D
Presenterade mig, och sen sa jag


Bridge...

F#m         E                       F#m
Försök ingenting för jag vet att du gillar
D                  E
När täcket går som havets vågor


Chorus...

A                     E
Jag vill ha dig baby, utan kläder
F#m                D
Kan du sluta spela svår, för jag har dig snart ändå
A                    E                            F#m
Om inga större under sker, som att himlen trillar ner
                D
Innan solen går upp, ska vi älska hos mig


Outro...

A E F#m D

e|-----------------------------------------------------------------------|
b|-----------------------------------------------------------------------|
g|-6-6-6----------6-9-7-6---6-6-6----------------------------------------|
d|-------9-7-9--9---------7-------9-7-7----------------------------------|
a|-----------------------------------------------------------------------|
e|-----------------------------------------------------------------------|


Verse...

A                E       F#m                 D
Du kan lura dina vänner, men du lurar aldrig mig
A                 E     F#m                D
Jag kan se i dina ögon, att du är långmilare
A                 E                         F#m
Med ett hjärta av guld och en fallenhet för synd
                D
Du lämnar lyset tänt, men det är ingen hemma


Bridge...

F#m         E                       F#m
Försök ingenting för jag vet att du gillar
D                  E
När täcket går som havets vågor


Chorus...

A                     E
Jag vill ha dig baby, utan kläder
F#m                D
Kan du sluta spela svår, för jag har dig snart ändå
A                    E                            F#m
Om inga större under sker, som att himlen trillar ner
                D
Innan solen går upp, ska vi älska hos mig


Solo...


Choir...

A E F#m D

Woho oh oh oh oh x10


Chorus...x2

A                     E
Jag vill ha dig baby, utan kläder
F#m                D
Kan du sluta spela svår, för jag har dig snart ändå
A                    E                            F#m
Om inga större under sker, som att himlen trillar ner
                D
Innan solen går upp, ska vi älska hos mig


Choir...

A E F#m D

Woho oh oh oh oh x6


Rock on! 
//AlexLinus
Добавлено: 09.10.2013
Другие материалы по этой песне:
  • Аккорды и текст

Страница создана 09.10.2013
http://primanota.ru/misc-unsigned-bands/2-blyga-lppar-jag-vill-ha-dig-baby-utan-klder-chords.htm
Привет, Гость.
Предлагаем пройти революционный курс по гитаре.
Подарок от PrimaNota.Ru, забирай!