PrimaNota.ru - самый крупный в мире бесплатный архив песенных текстов, аккордов, табулатур и нот


Misc Traditional - Resham Fe Re Re - таба, видео

Регистрация Запомнить меня
Войти через:  Facebook Google Twitter Vk Yandex Mail.ru

Misc Traditional - Resham Fe Re Re - таба, видео

Печатать
Просмотров: 53
Уроки эстрадного вокала в Санкт-Петербурге
-------------------------------------------------------------------------------
                             Resham Firiri - Nepali Classic Instrumental
-------------------------------------------------------------------------------
Tabs and Chords by:Deepak Gautam
E-mail:deepugtm@gmail.com

Tuning:Standard

Intro:

   D
e|---------------------------------------------------------------------------|
B|---------------------------------------------------------------------------|
G|-9p7-7-7---9p7-7-7--9p7-7-7--9p7-9p7---------------------------------------|
D|---------------------------------------------------------------------------|
A|---------------------------------------------------------------------------|
E|---------------------------------------------------------------------------|
   Bm                                     
e|---------------------------------------------------------------------------|
B|---------------------------------------------------------------------------|
G|-7p4-4-4---7p4-4-4--7p4-4-4--7p4-7p4---------------------------------------|
D|---------------------------------------------------------------------------|
A|---------------------------------------------------------------------------|
E|---------------------------------------------------------------------------|

      A             D                       A            D
e|---------------------------------------------------------------------------|
B|---------------------------------------------------------------------------|
G|---------9s11-9-------7h9-9--------9s11-9---------7h9-7--------------------|
D|----7--9---------7--9---------7--9-----------7--9--------------------------|
A|---------------------------------------------------------------------------|
E|---------------------------------------------------------------------------|

   
   D                                      A
   Resham    Firi ri      Resham   Firi   ri
e|---------------------------------------------------------------------------|
B|------------10s12-10---10-10h12-10-----------------------------------------|
G|-7-7-9-9s11---------11-------------11s9-9-11-------------------------------|
D|---------------------------------------------------------------------------|
A|---------------------------------------------------------------------------|
E|---------------------------------------------------------------------------|
   
   D                                 A          D
   Udera  Jaau ki  Dandama Bhanjyang Resham Firiri
e|---------------------------------------------------------------------------|
B|-----------10s12-10-10s9---------------------------------------------------|
G|-7-7-9-9s11--------------11p9-11--9-9s7---9-7------------------------------|
D|----------------------------------------9----------------------------------|
A|---------------------------------------------------------------------------|
E|---------------------------------------------------------------------------|


  Eknaale  Banduk Dui Naale Banduk Mriga lai Taakeko
e|---------------------------------------------------------------------------|
B|---------------------------------------------------------------------------|
G|-9s11-11-11-9-11--7-7-7-----9s11--9---7-7-7--------------------------------|
D|------------------------9-7---------9--------------------------------------|
A|---------------------------------------------------------------------------|
E|---------------------------------------------------------------------------|

  Mriga lai Maile Taakeko Haina Maaya lai Daakeko
e|---------------------------------------------------------------------------|
B|---------------------------------------------------------------------------|
G|-9s11-11-11-9-11--7-7-7-----9s11--9---7-7-7--------------------------------|
D|------------------------9-7---------9--------------------------------------|
A|---------------------------------------------------------------------------|
E|---------------------------------------------------------------------------|





************************************

| s   slide
| h   hammer-on
| p   pull-off
| ~   vibrato

************************************
Добавлено: 13.03.2016
Другие материалы по этой песне:

Страница создана 05.09.2013
http://primanota.ru/misc-traditional/resham-fe-re-re-chords.htm
Привет, Гость.
Предлагаем пройти революционный курс по гитаре.
Подарок от PrimaNota.Ru, забирай!