PrimaNota.ru - самый крупный в мире бесплатный архив песенных текстов, аккордов, табулатур и нот


Misc Traditional - Popular Mallorquina - таба

Регистрация Запомнить меня
Войти через:  Facebook Google Twitter Vk Yandex Mail.ru

Misc Traditional - Popular Mallorquina - таба

Печатать
Просмотров: 65
 "Popular mallorquina"
 Anonymus
 tabbeb by Andreu Jené

 It comes from the Isle of Majorca
 The rythm is like a medieval dance
 I can't set the note lengths, the total playing is about 55 seconds long
 Play A twice and then B twice with the endings 1st and 2nd

 send any comments to: andreujene@yahoo.com

 A:

 e------------------------------------------------------
 B-----0--1--1--3--1>0---1------------------------------
 G--2-----2--2--4--------2--2---------------------------
 D------------------------------------------------------
 A--------0--------------0--------0---------------------
 E--------------0--------------0------------------------

 
 e--------0--0--1--0------------------------------------
 B--1--3--1--0--0-----3--1------------------------------
 G--------0-----0-----------0---------------------------
 D--------------0-----------2---------------------------
 A--------3--------------3-----3------------------------
 E------------------------------------------------------


 e--0--1--0---------------------------------------------
 B-----------3--0--3--1--1------------------------------
 G--------1---------------------------------------------
 D--------------------------2---------------------------
 A--------------------0--------0------------------------
 E--------0-----4---------------------------------------


 e--------0--------------------------------------------|
 B--1--3-----3--0--1--1>0------------------------------|
 G--------1----------------2---------------------------|
 D-----------------------------------------------------|
 A--------------------0----------0---------------------|
 E--------0-----4-------------0------------------------|


 B:

 e--5--5--1--------5--5--0------------------------------
 B--------3--------------1------------------------------
 G------------------------------------------------------
 D--------0-----0---------------------------------------
 A-----------0-----------0-----0------------------------
 E--------------------------0---------------------------

                                 1st       2nd
 e-------0-------------------|-------|-----5---|--------
 B--1--3----3--0--1--1>0-----|-------|-----5---|--------
 G-------1----------------2--|-------|-----5---|--------
 D---------------------------|-------|---------|--------
 A-------------------0-------|----0--|---------|--------
 E-------0-----4-------------|-0-----|--0--5---|--------



     
Добавлено: 02.10.2013
Другие материалы по этой песне:
  • Аккорды и текст

Страница создана 02.10.2013
http://primanota.ru/misc-traditional/popular-mallorquina-chords.htm
Привет, Гость.
Предлагаем пройти революционный курс по гитаре.
Подарок от PrimaNota.Ru, забирай!