PrimaNota.ru - самый крупный в мире бесплатный архив песенных текстов, аккордов, табулатур и нот


Misc Traditional - Onward christian soldiers - таба, видео

Регистрация Запомнить меня
Войти через:  Facebook Google Twitter Vk Yandex Mail.ru

Misc Traditional - Onward christian soldiers - таба, видео

Печатать
Просмотров: 94



Fellow guitarists,

Here's a simple finger-style arrangement of Onward Christian Soldiers in
open C tuning.   Check in at American Primitive Guitar for more Americana
arrangements in open C at the APG site at
http://www.geocities.com/BourbonStreet/5322 .  Also, I'm always looking
for projects, so if you have any requests please let me know.

Les at APG

*************************************************************

ONWARD CHRISTIAN SOLDIERS


arranged by Les Weller
open C Tuning - CGCGCE

 1             ar
E ---3--3-3-3--3---5-3----|-----------0-------|
C ---0--0-0-0--2-----2----|--2-2-0-2--0--(0)--|
G ---0--0-0-0--0-----0----|--0-0-0-0--0-------|
C ------0---0----2-----0--|----2---2----0---0-|
G -------------0-----0----|--0---0------------|
C ---0----0---------------|-----------0---0---|

 2       /s   ar                       ar
E ----0-3--8--8-----7----|--5--5-----2--3------3---|
C --0---------7--(7)-----|--2--2--4--2--2--(2)-----|
G ------------7----------|--2--2--2-----0----------|
C ----0----0----7-----7--|-----2-----2----2------2-|
G -----------------------|--------------0------0---|
C --0---0-----7-----7----|--2-----2----------------|

 3              ar
E --------0-----0---1-0---|--3-3-8----5------5---|
C --2--2--2--2--0---0-0---|--0-0---7--5---(5)----|
G --0--0-----0--0---------|-----------5----------|
C -----2-----2----0-----0-|----0---0-----5-----5-|
G --0-----0---------------|----------------------|
C --------------0-----0---|--0---0----5------5---|

 4                                    ar
E --5---------------5---------------|-5----------------------||
C ------7---5---7-------7---5---7---|-5--7---5---4-2-----2---||
G ----5---5---5---5---5---5---5---5-|-5----5---5-0-0--(0)----||
C ------5-------5-------5-------5---|----5-------0---2-----2-||
G ----------------------------------|--------------0-----0---||
C --5-------5-------5-------5-------|-5------5---------------||

 5 CHORUS       ar                            ar
E --------------------------|-----------------0------0----|
C --0--0--0--0--0--------0--|--2--2--2--0--2--0--(0)------|
G --0--0--0--0--0--4-2-4----|--0--------------0-----------|
C -----0-----0--2--2-----2--|-----2-----2-------0------0--|
G --------------0------0----|--0-----0--------------------|
C --0-----0-----------------|-----------------0------0----|

 6      /s      ar             ar             st
E --3--3--8--7--8-----------|--1--0--------------||
C --4--4--7--7--7------7----|--2------2----0--0--||
G --------------0--(0)------|--0---(0)--------0--|| END
C -----0-----0----0------0--|-----2------2----0--||
G --------------------------|--0------0-------0--||
C --0-----0-----0------0----|-----------------0--||

 ||                 ar = arpeggio roll  (0) = grace note
o||= Repeat from    st = Strum slow     W = Whole note (sustain)
o||  Beginning      p  =  Pull Off      h  =  Hammer on
 ||                 /s = slide up       s = Slide down

NOTE: This file is the author's own work and represents his
interpretation of the song. You may only use this file for
private study, scholarship, or research.


Tab by L. Weller - soldier.txt - 6/24/98
for American Primitive Guitar

APG Site II - http://www.geocities.com/BourbonStreet/5322
e-mail - leswaia@erols.com


Добавлено: 23.01.2014
Другие материалы по этой песне:
  • Аккорды и текст

Страница создана 23.01.2014
http://primanota.ru/misc-traditional/onward-christian-soldiers-chords.htm
Привет, Гость.
Предлагаем пройти революционный курс по гитаре.
Подарок от PrimaNota.Ru, забирай!