PrimaNota.ru - самый крупный в мире бесплатный архив песенных текстов, аккордов, табулатур и нот


Misc Traditional - Mexican Lament - таба, видео

Регистрация Запомнить меня
Войти через:  Facebook Google Twitter Vk Yandex Mail.ru

Misc Traditional - Mexican Lament - таба, видео

Печатать
Просмотров: 81
-------------------------------------------------------------------------------
                             Traditional Mexican Lament
-------------------------------------------------------------------------------
Tabbed by: ThorChicken
E-mail: Privateawesome00@gmail.com

Tuning: Standard

e|---0---5-7-8-5-0----3-1--------1--0------0-------------------0-0--0--------|
B|-----------------1-----------3----------0-3-1-0-1--------1--0--------------|
G|------------------------2-2---------1-2------------2----------1------------|
D|--------------------0---------------------------------2-----------2--------|
A|-------0-----0-------------------------------------0-----------------------|
E|--------------------------1-------0----------------------------------------|

e|---0---5-7-8-5-0----3-1--------1--0------0------------0--4---7--5----------|
B|-----------------1-----------3----------0-3-1-0-1---------3----------------|
G|------------------------2-2---------1-2------------2---------5-------------|
D|--------------------0------------------------------------------------------|
A|-------0-----0-------------------------------------0--0------0-------------|
E|--------------------------1-------0----------------------0-----------------|

Thanks for playing!
{Note: The chords are Am, Dm, Dm (F Bass) E7, Am, E7, then Am, Dm, Dm (F Bass) E7, Am, E7, Am

************************************
Добавлено: 19.07.2015
Другие материалы по этой песне:
  • Аккорды и текст

Страница создана 19.07.2015
http://primanota.ru/misc-traditional/mexican-lament-chords.htm
Привет, Гость.
Предлагаем пройти революционный курс по гитаре.
Подарок от PrimaNota.Ru, забирай!