PrimaNota.ru - самый крупный в мире бесплатный архив песенных текстов, аккордов, табулатур и нот


Misc Traditional - Lorena - таба

Регистрация Запомнить меня
Войти через:  Facebook Google Twitter Vk Yandex Mail.ru

Misc Traditional - Lorena - таба

Печатать
Просмотров: 100
Уроки эстрадного вокала в Санкт-Петербурге
This is an old Civil War-era tune that was loved by both the 
Northern and the Southern armies.  This is a first attempt, so
feel free to correct any mistakes.
(Capo the 8th fret to make it real easy)


LORENA - Traditional
Tab by Erik King


e-----------------------------------------------------------------
B----------------------12--10--8----------------------------------
G---------------9-----------------9-9------------------9--11-12---
D---12-12---12-----12------------------12-12-12-12-12-------------
A-----------------------------------------------------------------
E-----------------------------------------------------------------


e-----------------------------------------------------------------
B----------------------12--10--8-----8----8--10--8---12---10---8--
G---------------9-----------------9----11-------------------------
D---12-12---12-----12---------------------------------------------
A-----------------------------------------------------------------
E-----------------------------------------------------------------
     
Добавлено: 26.09.2013
Другие материалы по этой песне:
  • Аккорды и текст

Страница создана 26.09.2013
http://primanota.ru/misc-traditional/lorena-chords.htm
Привет, Гость.
Предлагаем пройти революционный курс по гитаре.
Подарок от PrimaNota.Ru, забирай!