PrimaNota.ru - самый крупный в мире бесплатный архив песенных текстов, аккордов, табулатур и нот


Misc Traditional - Las Maanitas - таба, видео

Регистрация Запомнить меня
Войти через:  Facebook Google Twitter Vk Yandex Mail.ru

Misc Traditional - Las Maanitas - таба, видео

Печатать
Просмотров: 112
-------------------------------------------------------------------------------
                             Las Mañanitas - Misc. Traditional
-------------------------------------------------------------------------------
Tabbed by: Andres (silvadolla) Ali 
Email: andres.ali@gmail.com

Tuning: EADGBE

This is a nice little tune usually played on someone's birthday in a latin-american household.

I added in a few slurs here and there, heck you should add much more. Make it as 
smooth and expressive as you'd like. 

e|---------5---5--4-5-7-----5-7-9----7-9h10--10----------------------------|
B|-----5-5--------------5---------5----------------------------------------|
G|-------------------------------------------------------------------------|
D|-------------------------------------------------------------------------|
A|-------------------------------------------------------------------------|
E|-------------------------------------------------------------------------|

e|--10-10-9p7------7-5-----------------------------------------------------|
B|------------10-9-------9-10-12-14-15-12-10-------------------------------|
G|-------------------------------------------------------------------------|
D|-------------------------------------------------------------------------|
A|-------------------------------------------------------------------------|
E|-------------------------------------------------------------------------| 

e|-------------------------------------------------------------------------|
B|-/14-12---9-10-12--14-10--/14-12--9-10-12-14-----------------------------|
G|-------------------------------------------------------------------------|
D|-------------------------------------------------------------------------|
A|-------------------------------------------------------------------------|
E|-------------------------------------------------------------------------|  

e|-------------------------------------------------------------------------|
B|--10-10-/15-15--17-15-14-10---9-10-12-14--15-12-10-----------------------|
G|-------------------------------------------------------------------------|
D|-------------------------------------------------------------------------|
A|-------------------------------------------------------------------------|
E|-------------------------------------------------------------------------| 

e|-----5----4-5-5--4-5-5 --9-7-5-4--7-7-4-7-5-7-7-5-7-7--7-----------------|
B|---5---------------------------------------------------------------------|
G|-------------------------------------------------------------------------|
D|-------------------------------------------------------------------------|
A|-------------------------------------------------------------------------|
E|-------------------------------------------------------------------------| 

e|--10-9-9-7-4-5-----------------------------------------------------------|
B|-------------------------------------------------------------------------|
G|-------------------------------------------------------------------------|
D|-------------------------------------------------------------------------|
A|-------------------------------------------------------------------------|
E|-------------------------------------------------------------------------|
                  _3_ 
e|---5-4--2-4--5--777---7s9h10--9-10-9-10-9-10-10---10-9-7--5-4-5----------|
B|-------------------------------------------------------------------------|
G|-------------------------------------------------------------------------|
D|-------------------------------------------------------------------------|
A|-------------------------------------------------------------------------|
E|-------------------------------------------------------------------------|  

e|--7-9-9--9-10-9--9-7--4h5--5v--------------------------------------------|
B|-------------------------------------------------------------------------|
G|-------------------------------------------------------------------------|
D|-------------------------------------------------------------------------|
A|-------------------------------------------------------------------------|
E|-------------------------------------------------------------------------| Fine 

That's it you're done.

Any questions, comments, or corrections, please email me at andres.ali@gmail.com. Thanks 


| /  slide up
| \  slide down
| h  hammer-on
| p  pull-off
| ~  vibrato
| +  harmonic
| x  Mute note
===============================================================================
Добавлено: 25.03.2012
Другие материалы по этой песне:

Страница создана 25.03.2012
http://primanota.ru/misc-traditional/las-maanitas-chords.htm
Привет, Гость.
Предлагаем пройти революционный курс по гитаре.
Подарок от PrimaNota.Ru, забирай!