PrimaNota.ru - самый крупный в мире бесплатный архив песенных текстов, аккордов, табулатур и нот


Misc Traditional - Ja Vi Elsker - таба, видео

Регистрация Запомнить меня
Войти через:  Facebook Google Twitter Vk Yandex Mail.ru

Misc Traditional - Ja Vi Elsker - таба, видео

Печатать
Просмотров: 105
Song: Ja, Vi Elsker (National anthem of Norway)
Author: B. Bjørnson, R. Nordraak
Tabbed by: Henrik Engebretsen
@: henrikengebretsen@gmail.com


e|--------|--------|--------|--------|--------|--------|--------|--------|
B|--------|--------|--------|--------|--------|--------|--------|--------|
G|--------|--------|--------|--------|--------|--------|--------|--------|
D|--------|--------|---6----|--------|6-------|--------|---66-8-|9-------|
A|9--76---|----6-7-|9---9-7-|6-------|---97-6-|--6-7-9-|9-------|--------|
E|------9-|7-9-----|--------|--------|--------|9-------|--------|--------|

e|--------|--------|--------|--------|--------|--------|--------|--------|
B|--------|--------|--------|--------|--------|--------|--------|--------|
G|--------|--------|--------|--------|--------|--------|--------|6-----66|
D|9--98866|--------|6--6----|--------|--6-6-8-|8---9---|9--98-9-|--------|
A|--------|9---6---|----9-9-|7-----99|9-------|--------|--------|--------|
E|--------|--------|--------|--------|--------|--------|--------|--------|

e|--------|--------|--------|--------|
B|--------|--------|--------|--------|
G|6-8-9-8-|6-------|--------|--------|
D|--------|----9-86|---66-8-|9-------|
A|--------|--------|9-------|--------|
E|--------|--------|--------|--------|


This should be pretty accurate. Enjoy!
Please rate and comment.
Добавлено: 17.05.2012
Другие материалы по этой песне:

Страница создана 28.02.2012
http://primanota.ru/misc-traditional/ja-vi-elsker-chords.htm
Привет, Гость.
Предлагаем пройти революционный курс по гитаре.
Подарок от PrimaNota.Ru, забирай!