PrimaNota.ru - самый крупный в мире бесплатный архив песенных текстов, аккордов, табулатур и нот


Misc Traditional - Guantanamera - таба, видео

Регистрация Запомнить меня
Войти через:  Facebook Google Twitter Vk Yandex Mail.ru

Misc Traditional - Guantanamera - таба, видео

Печатать
Просмотров: 122
Уроки эстрадного вокала в Санкт-Петербурге
Artist: ? (Traditional)
Title: Guantanamera
Tuning: normal (E A D G B e)
Tabbed by: Schadi (schadhauserflo@aol.com)

It couldn't find a tab for this song.
G here is one possibility to play it.

Chords

    F     G7    C
e---1-----1-----0----------------
B---1-----0-----1----------------
G---2-----0-----0----------------
D---3-----0-----2----------------
A---3-----2-----3----------------
E---1-----3-----0----------------


Chorus

  F                    G7                 C                  F          G7
--------------------------------------------------------------------------------
------1---------1---------0---------0---------1---------1---------1---------0--
----2---2-----2----2----0---0-----0---0-----0---0-----0---0-----2---2-----0---0-
--------------------------------------------------------------------------------
------------------------------------------3---------3---------------------------
-1---------1----------3--------3-----------------------------1---------3-------
  Guantanamera ...


                                                                    |Here starts
C        F         G7                   C         F         G7      |the verse
--------------------------------------------------------------------|----------
----1---------1---------0---------0---------1---------1---------0---|-----0----
--0---0-----2---2-----0---0-----0---0-----0---0-----2---2-----0---0-|---0---0--
--------------------------------------------------------------------|----------
3---------------------------------------3---------------------------|----------
---------1---------3---------3-------------------1---------3--------|--3-------
  Guantanamera ...                                                    Yo soy ...


 C        F         G7                   C         F         G7       
-------------------------------------------------------------------------------
-----1---------1---------0---------0---------1---------1---------0--------0----
---0---0-----2---2-----0---0-----0---0-----0---0-----2---2-----0---0----0---0--
-------------------------------------------------------------------------------
-3---------------------------------------3-------------------------------------
----------1---------3---------3-------------------1---------3----------3-------
hombre since ...


C        F         G7                   C         F         G7       
-------------------------------------------------------------------------------
-----1---------1---------0---------0---------1---------1---------0--------0----
---0---0-----2---2-----0---0-----0---0-----0---0-----2---2-----0---0----0---0--
-------------------------------------------------------------------------------
-3---------------------------------------3-------------------------------------
----------1---------3---------3-------------------1---------3----------3-------
hombre since ...


C        F         G7                   C         F         G7       
-------------------------------------------------------------------------------
-----1---------1---------0---------0---------1---------1---------0--------0----
---0---0-----2---2-----0---0-----0---0-----0---0-----2---2-----0---0----0---0--
-------------------------------------------------------------------------------
-3---------------------------------------3-------------------------------------
----------1---------3---------3-------------------1---------3----------3-------
morrir me ...



Solo (timing not right!)
 F            G7      C          F G7  C       F G7      C     F  G7 
--------------------------------------------------------------------------------
-2--2-2-2--2------2---0--2---0-0------------------------------------------------
----------------3---3------2----------------0--2-0--2---------------------------
---------------------------------------2--3----------3-0---------------0--------
---------------------------------------------------------3-3-2-0-----3-----3----
------------------------------------------------------------------3-------------


  C      F     G7        C    F  G7       C     F  G7      C F    G7
-------------------------------------------------------------------------------
-------------------------------------------------------------------------------
-----------------------------------------------------0-0-0-0-------------------
--0--0---0-0------0-2-3-2-----0-0----0----0-0---0-0-----------3-2-0-0--0-2-3---
-------3------------------3-0------3---3------3--------------------------------
-------------------------------------------------------------------------------

  C     F  G7         C     F   G7
-------------------------------------------------------------------------------
-------------------------------------------------------------------------------
--0-0-0-2--0---2---------------------------------------------------------------
-----------------3-0-----------------------------------------------------------
----------------------3-3-2-0--------------------------------------------------
--------------------------------3-----------------------------------------------


I'm too lazy to write more.
Questions?
Mail me : schadhauserflo@aol.com
Please write me in German or in English!!!!
     
Добавлено: 18.09.2013
Другие материалы по этой песне:
  • Аккорды и текст

Страница создана 22.08.2013
http://primanota.ru/misc-traditional/guantanamera-chords.htm
Привет, Гость.
Предлагаем пройти революционный курс по гитаре.
Подарок от PrimaNota.Ru, забирай!