PrimaNota.ru - самый крупный в мире бесплатный архив песенных текстов, аккордов, табулатур и нот


Misc Traditional - God Save The Queen - аккорды и текст, таба, бас-таба, видео

Регистрация Запомнить меня
Войти через:  Facebook Google Twitter Vk Yandex Mail.ru

Misc Traditional - God Save The Queen - аккорды и текст, таба, бас-таба, видео

Печатать
Просмотров: 173
Уроки эстрадного вокала в Санкт-Петербурге
God Save The Queen
Misc Traditional
---------------------------------------------------------------------------
                     God Save the Queen 
---------------------------------------------------------------------------
Tabbed by: maguri
Tuning: Standard

God Save the Queen
Anonymous / Lyrics: Henry Carey (1790)

British national anthem

---------------------------------------------------------------------------

                 Gsus4/A                     E7/G#
  C   Am  Dm   G      G/B   C   Am  F   C/G      Am
  1 + 2 + 3 +  1 + 2 + 3 +  1 + 2 + 3 +  1 + 2 + 3 + 
e|------------|------------|0---0---1---|0-----------|
B|1---1---3---|0-----1-3---|1---1---1---|1-----3-1---|
G|0---2---2---|0-----0-0---|0---2---2---|0-----4-2---|
D|2---2---0---|0-----0-0---|------------|------0-2---|
A|3---0-------|------0-2---|3---0-------|--------0---|
E|------------|3-----------|--------1---|3-----4-----|
                                              G7/B
  Dm  C/G G    C            C   C/E C/G  C       C
  1 + 2 + 3 +  1 + 2 + 3 +  1 + 2 + 3 +  1 + 2 + 3 + 
e|------------|------------|3---3---3---|3-----1-0---|
B|3---1---0---|1-----------|1---1---1---|1-----0-1---|
G|2---0---0---|0-----------|0---0---0---|0-----0-0---|
D|0---2---0---|2-----------|------------|------------|
A|------------|3-----------|3-----------|3-----2-3---|
E|----3---3---|------------|----0---3---|------------|
                                 C/E  C
  G7  G7/B G7/D G7  G6 G    C/E F  G/D   C/E   F C/G
  1 + 2 + 3 +  1 + 2 + 3 +  1 + 2 + 3 +  1 + 2 + 3 + 
e|1---1---1---|1-----0-----|0---1-0-----|0-----1-3---|
B|0---0---0---|0-----0-3---|1---1-1-3-1-|1-----1-1---|
G|0---0---0---|0-------0---|0---2-0-0-0-|0-----2-0---|
D|--------0---|------------|2---3-2-0-2-|------------|
A|----2-------|------------|----------3-|------------|
E|3-----------|3-----------|------------|0-----1-3---|
  F   C/G G    C
  1 + 2 + 3 +  1 + 2 + 3 +  
e|5---0-------|------------|
B|--6-1---3---|1-----------|
G|5---0---0---|0-----------|
D|--------0---|2-----------|
A|------------|3-----------|
E|----3---3---|------------|


---------------------------------------------------------------------------
CHORDS

         E A D G B E
Gsus4/A  x-0-0-0-1-x
G/B      x-2-0-0-3-x
C/G      3-x-2-0-1-0
E7/G#    4-x-0-4-3-x
C/E      0-x-2-0-1-0   or  x-x-2-0-1-0
G7/B     x-2-0-0-0-1
G7/D     x-x-0-0-0-1
G6/D     x-x-0-0-0-0
G/D      x-x-0-0-3-x

---------------------------------------------------------------------------

C   Am   Dm  G  Gsus4/A G/B
God save our gracious   Queen
C    Am   F   C/G E7/G# Am
Long live our no--ble   Queen
Dm  C/G  G   C
God save the Queen
C    C/E C/G C G7/B C
Send her vic-tori - ous
G7 G7/B G7/D G7 G6/D G/D
Happy   and  glori - ous
C/E  F  C/E G/D C   C/E F   C/G
Long to-oo  rei-ign o - ver us
F   C/G  G   C
God save the Queen


C Am    Dm  G    Gsus4/A G/B
O Lord, our God, a   -   rise
C  Am   F   C/G E7/G# Am
Scatter her e – ne  - mies
Dm  C/G  G    C
And make them fall
C  C/E   C/G   C  G7/B C
Confound their po-li - tics
G7  G7/B  G7/D  G7 G6/D G/D
Frustrate their knavish tricks
C/E F    C/E G/D C   C/E   F  C/G
On  Thee-ee  ou- our hopes we fix
F   C/G  G  C
God save us all


C   Am  Dm   G     Gsus4/A G/B
Thy choicest gifts in      store
C  Am  F  C/G     E7/G# Am
On her be pleased to    pour
Dm   C/G  G   C
Long may  she reign
C   C/E C/G C    G7/B C
May she de -fend our  laws
G7  G7/B G7/D G7  G6/D G/D
And e  - ver give us   cause
C/E F  C/E G/D C   C/E   F   C/G
To  si-ing wi -ith heart and voice
F   C/G  G   C
God save the Queen


Добавлено: 30.06.2014
Другие материалы по этой песне:

Страница создана 16.03.2012
http://primanota.ru/misc-traditional/god-save-the-queen-chords.htm
Привет, Гость.
Предлагаем пройти революционный курс по гитаре.
Подарок от PrimaNota.Ru, забирай!