PrimaNota.ru - самый крупный в мире бесплатный архив песенных текстов, аккордов, табулатур и нот


Misc Traditional - Ghost Rider - аккорды и текст, таба, видео

Регистрация Запомнить меня
Войти через:  Facebook Google Twitter Vk Yandex Mail.ru

Misc Traditional - Ghost Rider - аккорды и текст, таба, видео

Печатать
Просмотров: 82
Ghost Rider
Misc Traditional
		   * Traditional : Ghost rider (Trad.)
  -------------------------


                                                   |--Echo---------|
E |-----|-----------|-----------|-----------|-----|-----------|----------|
B |-----|-----------|-----------|-----------|-----|-----------|----------|
G |-----|-----------|-----------|-----------|-----|-----------|----------|
D |-----|-----------|-----------|-----------|-----|-----------|----------|
A |-----|--0-0-0-2--|--3-3-3-0--|-----------|-----|-----------|----------|
E |--0--|-----------|-----------|--3-3-3-0--|--3--|--3-3-3-0--|--3----0--|

                                             |--Echo--------|
E |-----------|-----------|-----------|-----|-----------|--------|-----------|
B |-----------|-----------|-----------|-----|-----------|--------|-----------|
G |-----------|-----------|-----------|-----|-----------|--------|----2-2-2--|
D |-----------|--------0--|--2-2-2----|--2--|--2-2-2----|--2--2--|--2--------|
A |--0-0-0-2--|--3-3-3----|--------3--|-----|--------3--|--------|-----------|
E |-----------|-----------|-----------|-----|-----------|--------|-----------|

                                   |--Echo--------|
E |-----------|-----------|-------|-----------|--------|-----------|-------|
B |-----------|-----------|-------|-----------|--------|-----------|-------|
G |--2--------|-----------|-------|-----------|--------|-----------|-------|
D |----2-2-2--|--2-2-2----|-------|--2-2-2----|--------|-----------|-------|
A |-----------|--------3--|--0----|--------3--|--0--0--|-----------|--3----|
E |-----------|-----------|-------|-----------|--------|--1-1-1-1--|-------|

   |--Echo--------|                     |--Echo-------------|
E |-----------|--------|-----------|--------|-----------|-----|----------|-----|
B |-----------|--------|-----------|--------|-----------|-----|----------|-----|
G |-----------|--------|-----------|--------|-----------|-----|----------|--0--|
D |-----------|--------|-----------|--------|-----------|-----|--2-2-2---|-----|
A |-----------|--3--3--|--3-0-0----|--0--3--|--3-0-0----|--0--|----------|-----|
E |--1-1-1-1--|--------|--------3--|--------|--------3--|-----|----------|-----|

   |--Echo--------|                     |--Echo-----------|
E |----------|-----|----------|--------|----------|--------|
B |----------|-----|----------|--------|----------|--------|
G |----------|--0--|--2-2-2---|--2-----|--2-2-2---|--2-----|
D |--2-2-2---|-----|----------|-----2--|----------|-----2--|
A |----------|-----|----------|--------|----------|--------|
E |----------|-----|----------|--------|----------|--------|


E |-----|--------|-----|----------|-----|-------||
B |-----|--------|-----|----------|-----|-------||
G |-----|--------|-----|----------|-----|-------||
D |-----|--------|-----|----------|-----|-------||
A |-----|--------|--3--|--(3)--3--|--0--|--(0)--||
E |--1--|--1--1--|-----|----------|-----|-------||



*******************************************************************************

                                           Keep rockin !

                                           Max ( Max_Guitarplayer@hotmail.com )

*******************************************************************************     
Добавлено: 07.12.2013
Другие материалы по этой песне:
  • Аккорды и текст

Страница создана 05.11.2013
http://primanota.ru/misc-traditional/ghost-rider-chords.htm
Привет, Гость.
Предлагаем пройти революционный курс по гитаре.
Подарок от PrimaNota.Ru, забирай!