PrimaNota.ru - самый крупный в мире бесплатный архив песенных текстов, аккордов, табулатур и нот


Misc Traditional - El Testament Damelia - таба, видео

Регистрация Запомнить меня
Войти через:  Facebook Google Twitter Vk Yandex Mail.ru

Misc Traditional - El Testament Damelia - таба, видео

Печатать
Просмотров: 105
-------------------------------------------------------
El Testamento De Amelia
-------------------------------------------------------
Tabbed by: J smith
Email: Gsmith1515@gmail.com

Tuning: Standard

e|--------------------------------------0-------------|
B|------------------------1-------3-----1------1------|
G|------2---2---2---------2-------------2------2------|
D|------------------------3--------------------2------|
A|---------------------------------------------0------|
E|----------------------------------------------------|

e|------1-1—-1--3-----0--0--0---------0--------1------|
B|--3--------0-----3--0--0--1---1--3--2---------------|
G|--2--------0--------0--1--2------1--0---------------|
D|--3-----------------2--0--2-------------------------|
A|--------------------3--2--0------------0------------|
E|-----------------------0----------------------------|

e|------------------------------------------0---------|
B|-3--1-----1------0--1--3------1-------1-------------|
G|-2--2--2---------------1----------2-----------2-----|
D|-3--2--3---------------2----------------------------|
A|-0--0-----------------------------0-----------0-----|
E|--------------------------0-------------------------|

e|------0------------0------------------------0-------|
B|---1-----------1-----------------1-----3----1---1---|
G|----------2------------2---2--2--2----------2---2---|
D|---------------------------5--4--3------------------|
A|-----------------------0--------------------0-------|
E|----------0-------------------------1---------------|

e|----------------------0---1-----1---1---0--1---3----|
B|--0---1-----------3-------------1---0-------------3-|
G|--1---2-----------2-------------2---0---------------|
D|------2-------2---3-------------0-------------------|
A|------0---3-----------------------------------------|
E|--0---------------1-----------------3---------------|



e|--0-------------0--------------------0---------0----|
B|--0-------------0--------------------1--1--3---2----|
G|--0-------------1--------------------4--2--1---0----|
D|--2---0---------0-----2--0-----------2--------------|
A|--3--------0----2------------3--2----0------------0-|
E|----------------0-----------------------------------|

e|--3-1--------------0--------------------------------|
B|----2--3-----------1---------------1---0--1--3------|
G|----0--2-----------2-----------2---2---------1------|
D|-------3---2---0---------------1---1---------2------|
A|-------0-----------3----2--0------------------------|
E|-------------------------------1--------------------|

e|--------0-----------------0------5------------------|
B|--------1---0---------1---1------5------------------|
G|----------------2-----2---2------5------------------|
D|----------------------2-----------------------------|
A|----------------0----------------------0------------|
E|---0------------------------------------------------|
Добавлено: 26.03.2012
Другие материалы по этой песне:

Страница создана 28.02.2012
http://primanota.ru/misc-traditional/el-testament-damelia-chords.htm
Привет, Гость.
Предлагаем пройти революционный курс по гитаре.
Подарок от PrimaNota.Ru, забирай!