PrimaNota.ru - самый крупный в мире бесплатный архив песенных текстов, аккордов, табулатур и нот


Misc Traditional - Dill Pickle Rag - таба, видео

Регистрация Запомнить меня
Войти через:  Facebook Google Twitter Vk Yandex Mail.ru

Misc Traditional - Dill Pickle Rag - таба, видео

Печатать
Просмотров: 160
-----------------------------------------------------------------------------
                         Dill Pickle Rag - (Traditional)
-----------------------------------------------------------------------------
                           Tabbed by: Cade_nickels

        *This is the Traditional version, not the Chet Atkins version.
             Thanks to SimpleGuitarPlayer for making the video
                 http://www.youtube.com/watch?v=t10J_7Krf9M
                         

Tuning: standard (EADGBe)


e|-------|---0-3----0-3----0-3----0-3-0---|--------------------------------|
B|-0-1-2-|-3------3------3------3-------3-|-----0------0------0------0-----|
G|-------|--------------------------------|-0-2----0-2----0-2----0-2---2-0-|
D|-------|--------------------------------|--------------------------------|
A|-------|--------------------------------|--------------------------------|
E|-------|--------------------------------|--------------------------------|

e|--------------------------------|-------------------------|
B|--------------------------------|-----------------------3-|
G|--------------------------------|-------------------1-2---|
D|-0-2-4--0-2-4--0-2-4--0-2-4-2-0-|-5-4-5-2--2-4-5--5-------|
A|--------------------------------|-------------------------|
E|--------------------------------|-------------------------|

e|-------|---0-3----0-3----0-3----0-3-0---|--------------------------------|
B|-0-1-2-|-3------3------3------3-------3-|-----0------0------0------0-----|
G|-------|--------------------------------|-0-2----0-2----0-2----0-2---2-0-|
D|-------|--------------------------------|--------------------------------|
A|-------|--------------------------------|--------------------------------|
E|-------|--------------------------------|--------------------------------|

e|--------------------------------|---------------|
B|--------------------------------|-------3-------|
G|--------------------------------|-0-1-2---1-2-0-|
D|-0-2-4--0-2-4--0-2-4--0-2-4-2-0-|---------------|
A|--------------------------------|---------------|
E|--------------------------------|---------------|

e|-------|---------|----0---0-------0---0-------0---0---|---------------|
B|-------|---------|------3---3-------3---3-------3---3-|---------------|
G|-0-----|---------|-0-----------------------0----------|---------------|
D|---4-2-|-0-1-2-4-|-------------4----------------------|---0---2---3---|
A|-------|---------|------------------------------------|-5---5---5---5-|
E|-------|---------|------------------------------------|---------------|

e|---0---0----------------0-|---------------|
B|-----3---3--------0-2-4---|---------------|
G|-0----------0-1-2---------|---------------|
D|--------------------------|-5-4-2-0-2-4---|
A|--------------------------|-------------5-|
E|--------------------------|---------------|

e|----0---0-------0---0-------0---0---|---------------|
B|------3---3-------3---3-------3---3-|---------------|
G|-0-----------------------0----------|---------------|
D|-------------4----------------------|---0---2---3---|
A|------------------------------------|-5---5---5---5-|
E|------------------------------------|---------------|

e|---0---0----------------0-|
B|-----3---3--------0-2-4---|
G|-0----------0-1-2---------|
D|--------------------------|
A|--------------------------|
E|--------------------------|

e|--------------|-----------------|---------------|
B|-1------1-----|-----------------|---------------|
G|---2-0----2-0-|-----0---0-2-0---|---------------|
D|--------------|-2-3---2-------2-|-----0-5-2-0---|
A|--------------|-----------------|-5-4---------3-|
E|--------------|-----------------|---------------|

e|-----|--------------|-----------------|---------------|
B|---0-|-1------1-----|-----------------|-------3-------|
G|-2---|---2-0----2-0-|-----0---0-2-0---|-0-2-4---4-2-0-|
D|-----|--------------|-2-3---2-------2-|---------------|
A|-----|--------------|-----------------|---------------|
E|-----|--------------|-----------------|---------------|

e|-----|--------------|-----------------|---------------|
B|---0-|-1------1-----|-----------------|---------------|
G|-2---|---2-0----2-0-|-----0---0-2-0---|---------------|
D|-----|--------------|-2-3---2-------2-|-----0-5-2-0---|
A|-----|--------------|-----------------|-5-4---------3-|
E|-----|--------------|-----------------|---------------|

e|-------|-------------------5-3-0-|---0---3---0---|
B|-1-0---|---0-1-0-1-3-3-1-3-------|-3---3---3---1-|
G|-----2-|-2-----------------------|---------------|
D|-------|-------------------------|---------------|
A|-------|-------------------------|---------------|
E|-------|-------------------------|---------------|

e|--------------|-----------------|---------------|
B|-1------1-----|-----------------|---------------|
G|---2-0----2-0-|-----0---0-2-0---|---------------|
D|--------------|-2-3---2-------2-|-----0-5-2-0---|
A|--------------|-----------------|-5-4---------3-|
E|--------------|-----------------|---------------|

e|-----|--------------|-----------------|---------------|
B|---0-|-1------1-----|-----------------|-------3-------|
G|-2---|---2-0----2-0-|-----0---0-2-0---|-0-2-4---4-2-0-|
D|-----|--------------|-2-3---2-------2-|---------------|
A|-----|--------------|-----------------|---------------|
E|-----|--------------|-----------------|---------------|

e|-----|--------------|-----------------|---------------|
B|---0-|-1------1-----|-----------------|---------------|
G|-2---|---2-0----2-0-|-----0---0-2-0---|---------------|
D|-----|--------------|-2-3---2-------2-|-----0-5-2-0---|
A|-----|--------------|-----------------|-5-4---------3-|
E|-----|--------------|-----------------|---------------|

e|-------|-------------------5-3-0-|---0---3---0---|
B|-1-0---|---0-1-0-1-3-3-1-3-------|-3---3---3---1-|
G|-----2-|-2-----------------------|---------------|
D|-------|-------------------------|---------------|
A|-------|-------------------------|---------------|
E|-------|-------------------------|---------------|

==========================================================================

Now into some basic chords ...

    G                Em                 D
e|----3---3---3---3-|---0---0---0---0-|---2---2---2---2-|
B|----0---0---0---0-|---0---0---0---0-|---3---3---3---3-|
G|----0---0---0---0-|---0---0---0---0-|---2---2---2---2-|
D|------------------|-----------------|-0-------0-------|
A|------2-------2---|-----2-------2---|-----0-------0---|
E|--3-------3-------|-0-------0-------|-----------------|

    G   Em  A   D
e|----3---0---0---2-|
B|----0---0---2---3-|
G|----0---0---2---2-|
D|--------------0---|
A|----------0-------|
E|--3---0-----------|

    G                Em                 D
e|----3---3---3---3-|---0---0---0---0-|---2---2---2---2-|
B|----0---0---0---0-|---0---0---0---0-|---3---3---3---3-|
G|----0---0---0---0-|---0---0---0---0-|---2---2---2---2-|
D|------------------|-----------------|-0-------0-------|
A|------2-------2---|-----2-------2---|-----0-------0---|
E|--3-------3-------|-0-------0-------|-----------------|

    A   D   G
e|----0---2---3---3-|
B|----2---3---0---0-|
G|----2---2---0---0-|
D|------0-----------|
A|--0-----------2---|
E|----------3-------|

    D       G         D       G         D       G
e|----2---2---3---3-|---2---2---3---3-|---2---2---3---3-|
B|----3---3---0---0-|---3---3---0---0-|---3---3---0---0-|
G|----2---2---0---0-|---2---2---0---0-|---2---2---0---0-|
D|--0---------------|-0---------------|-0---------------|
A|------0-------2---|-----0-------2---|-----0-------2---|
E|----------3-------|---------3-------|---------3-------|

    A       D         D       G         D       G 
e|----0---0---2---2-|---2---2---3---3-|---2---2---3---3-|
B|----2---2---3---3-|---3---3---0---0-|---3---3---0---0-|
G|----2---2---2---2-|---2---2---0---0-|---2---2---0---0-|
D|------0---0-------|-0---------------|-0---------------|
A|--0-----------0---|-----0-------2---|-----0-------2---|
E|------------------|---------3-------|---------3-------|

   D       G         D       G
e|---2---2---3---3-|---2---2---3-3-|
B|---3---3---0---0-|---3---3---0-0-|
G|---2---2---0---0-|---2---2---0-0-|
D|-0---------------|-0-------------|
A|-----0-------2---|-----0---------|
E|---------3-------|---------3-----|


=====================================================================
Then start over from the beginning.
Добавлено: 25.02.2012
Другие материалы по этой песне:
  • Аккорды и текст

Страница создана 25.02.2012
http://primanota.ru/misc-traditional/dill-pickle-rag-chords.htm
Привет, Гость.
Предлагаем пройти революционный курс по гитаре.
Подарок от PrimaNota.Ru, забирай!