PrimaNota.ru - самый крупный в мире бесплатный архив песенных текстов, аккордов, табулатур и нот


Misc Traditional - Blues In A - таба, видео

Регистрация Запомнить меня
Войти через:  Facebook Google Twitter Vk Yandex Mail.ru

Misc Traditional - Blues In A - таба, видео

Печатать
Просмотров: 51
-------------------------------------------------------------------------------
                             Blues in A - Misc Traditional
-------------------------------------------------------------------------------
Tabbed by: ThorChicken
E-mail: privateawesome00@gmail.com

Tuning: Standard

e|-------3-3---3-5----------------------------3-3--3------3-3-3--------------|
B|---0/5-----5----------3-3p1---1-3-1-----0/5---------0/5--------------------|
G|----------------------------2-------2--------------------------------------|
D|--------------------0---0-----0---0----------------------------------------|
A|-----0---0---0---0---------------------0--0---0----0--0---0--0--0----------|
E|---------------------------------------------------------------------------|

e|---------------------------------------------------------------------------|
B|-----1-1---1-3----3p1---3p1---3p1---1--------------------------------------|
G|---------2------------2-----2-----2---2------------0-2--2---0-2-2----------|
D|---0---0---0---0--0-----0-----0-----0------------2--------2----------------|
A|-----------------------------------------0--0--0---0----0---0---0-0--------|
E|---------------------------------------------------------------------------|
                                                         1. Ending
e|-------0-----0------0------------------5-----5-----5------5----------0-----|
B|---------0-3----------3---1-3-1------5---5-4---4-3---3----2----------3-----|
G|---0h1------------------2-------2----6---6-5---5-4---4----2----------1-----|
D|------------------0---0---0---0--------------------------------------------|
A|-----------------------------------0----------------------0-----2----------|
E|---0---0---0---0--------------------------------------------3h4---0--------|
  2. Ending
e|---5-----------------------------------------------------------------------|
B|---2--3-2------------------------------------------------------------------|
G|---2--1-0------------------------------------------------------------------|
D|------3-2------------------------------------------------------------------|
A|---0--1-0------------------------------------------------------------------|
E|---------------------------------------------------------------------------|

| /   slide up
| \   slide down
| h   hammer-on
| p   pull-off

************************************
Добавлено: 03.05.2016
Другие материалы по этой песне:
  • Аккорды и текст

Страница создана 03.05.2016
http://primanota.ru/misc-traditional/blues-in-a-chords.htm
Привет, Гость.
Предлагаем пройти революционный курс по гитаре.
Подарок от PrimaNota.Ru, забирай!