PrimaNota.ru - самый крупный в мире бесплатный архив песенных текстов, аккордов, табулатур и нот


Misc Traditional - Aura Lee - аккорды и текст, таба, видео

Регистрация Запомнить меня
Войти через:  Facebook Google Twitter Vk Yandex Mail.ru

Misc Traditional - Aura Lee - аккорды и текст, таба, видео

Печатать
Просмотров: 151
Aura Lee
Misc Traditional
		   * Traditional : Aura Lee (Trad.)
  ----------------------


     C              Dm            G              C
E |--------------|-------------|--------------|-------||
B |-----1--0--1--|--3-----3----|--1--0-----0--|--1----||
G |--0-----------|-----2-------|--------2-----|-------||
D |--------------|-------------|--------------|-------||
A |--------------|-------------|--------------|-------||
E |--------------|-------------|--------------|-------||

     C     E7       Am    C       F        Fm    C
E |--0--0--0--0--|--0--0--0----|--0-----------|--0----|
B |--------------|-------------|-----3--1--3--|-------|
G |--------------|-------------|--------------|-------|
D |--------------|-------------|--------------|-------|
A |--------------|-------------|--------------|-------|
E |--------------|-------------|--------------|-------|

     C     A        D             G              C
E |--0--0--1--0--|-------------|--------------|-------||
B |--------------|--3-----3----|--1--0-----0--|--1----||
G |--------------|-----2-------|--------2-----|-------||
D |--------------|-------------|--------------|-------||
A |--------------|-------------|--------------|-------||
E |--------------|-------------|--------------|-------||



*******************************************************************************

                                           Keep rockin !

                                           Max ( Max_Guitarplayer@hotmail.com )

*******************************************************************************     
Добавлено: 17.06.2013
Другие материалы по этой песне:

Страница создана 28.02.2012
http://primanota.ru/misc-traditional/aura-lee-chords.htm
Привет, Гость.
Предлагаем пройти революционный курс по гитаре.
Подарок от PrimaNota.Ru, забирай!