PrimaNota.ru - самый крупный в мире бесплатный архив песенных текстов, аккордов, табулатур и нот


Misc Traditional - Anzac Last Post - таба, видео

Регистрация Запомнить меня
Войти через:  Facebook Google Twitter Vk Yandex Mail.ru

Misc Traditional - Anzac Last Post - таба, видео

Печатать
Просмотров: 58
-------------------------------------------------------------------------------
                             ANZAC Last Post
-------------------------------------------------------------------------------
Tabbed by: mitch.woodward
E-mail: mitch.woody@live.com.au

Tuning: standard
no capo

The bars here are just for convenient separation of each respective part, 
They do not indicate the timing in any way

e|----------|---------|-----------------0--------------|--0--3--0-----3--0-----3--0-----------------|
B|----------|---------|--------------1-----------------|-----------1--------1--------1--------------|
G|------0H--|-----0H--|-----0--0--0--------0--0--0--0--|--------------------------------0--0--0--0--|
D|----------|---------|--------------------------------|--------------------------------------------|
A|---3------|--3------|--3-----------------------------|--------------------------------------------|
E|----------|---------|--------------------------------|--------------------------------------------|

e|--3--0--------0--------0--------0-----------0-----------------0--0----------|
B|--------1--------1--------1--------1--1--------1--------1--1--------1H------|
G|-----------0--------0--------0-----------0--------0--0----------------------|
D|----------------------------------------------------------------------------|
A|----------------------------------------------------------------------------|
E|----------------------------------------------------------------------------|

e|-----0--3--0------------------|---------------0----------------0----|-----------0-----0------|
B|--------------1---------------|-------1-1-1-1---1------1-1-1-1---1--|--------1-----1-----1H--|
G|--0--------------0--0--0--0H--|--0-0---------------0-0--------------|--0--0------------------|
D|------------------------------|-------------------------------------|------------------------|
A|------------------------------|-------------------------------------|------------------------|
E|------------------------------|-------------------------------------|------------------------|

e|-----0--3--0-----------------|--3--0-----3--0-----------------|---------|---------|
B|--------------1--------------|--------1--------1--------------|-----0H--|-----0H--|
G|--0--------------0--0--0--0--|--------------------0--0--0--0--|---------|---------|
D|-----------------------------|--------------------------------|--3------|--3------|
A|-----------------------------|--------------------------------|---------|---------|
E|-----------------------------|--------------------------------|---------|---------|

e|---------------------|--0H--|---------------------------------------------------|
B|-----------------1H--|------|---------------------------------------------------|
G|-----0--0--0--0------|------|---------------------------------------------------|
D|--3------------------|------|---------------------------------------------------|
A|---------------------|------|---------------------------------------------------|
E|---------------------|------|---------------------------------------------------|


I took this from some notation i found and tabbed it out. If there are any mistakes
either comment them and ill change it, or shoot me an email. Also, i realise there is
a section played after a massive pause that i haven't put in. If you know how it goes, 
because maybe you're a bugler, then just tell me and ill update the tab.
Cheers guys, hope you like it.
************************************

H = Hold (for as long as you see fit. I assume that you know how it sounds
          seeing as you're looking at this, its not exactly pop music)

************************************
Добавлено: 23.07.2014
Другие материалы по этой песне:
  • Аккорды и текст

Страница создана 23.07.2014
http://primanota.ru/misc-traditional/anzac-last-post-chords.htm
Привет, Гость.
Предлагаем пройти революционный курс по гитаре.
Подарок от PrimaNota.Ru, забирай!