PrimaNota.ru - самый крупный в мире бесплатный архив песенных текстов, аккордов, табулатур и нот


Misc Traditional - Andante - таба, видео

Регистрация Запомнить меня
Войти через:  Facebook Google Twitter Vk Yandex Mail.ru

Misc Traditional - Andante - таба, видео

Печатать
Просмотров: 88
Уроки эстрадного вокала в Санкт-Петербурге
-------------------------------------------------------------------------------
                             Andante - Renaissance Lute Solo
-------------------------------------------------------------------------------
Tabbed by: ThorChicken
E-mail: privateawesome00@gmail.com

Tuning: Drop-D

e|---2--2-3--5----------5--3-----2--0-----0---------7--2-4-5--4-2-0---0-2----|
B|---3--3-5--7---------------0-2-3--2--3--0-3-2--3---------2------2-3--------|
G|---2---------------------0-----2--2--4--0---2--2----------------2----------|
D|---0-------0--0-2-4------2-----0--2--4--0---2--4---------------------------|
A|---0-------0----------------------0--2------0--0---------------------------|
E|---0-------0----------------------------5------0---------------------------|

e|---3-------------0--2--------2-0-----0-------------------------------------|
B|---0--------3--3----3---0-2--3----3----3-2-0-------------------------------|
G|---0--------4-------2-2---2--2----4------3---3--4--------------------------|
D|---2-0-2-4--5-------0-----4--0----5------4------1--------------------------|
A|--------------------0---------------------------2--------------------------|
E|--------------------0-------------5------4---------------------------------|


************************************
Добавлено: 11.11.2015
Другие материалы по этой песне:
  • Аккорды и текст

Страница создана 11.11.2015
http://primanota.ru/misc-traditional/andante-chords.htm
Привет, Гость.
Предлагаем пройти революционный курс по гитаре.
Подарок от PrimaNota.Ru, забирай!