PrimaNota.ru - самый крупный в мире бесплатный архив песенных текстов, аккордов, табулатур и нот


Misc Traditional - Amhrann Na Bhiain - таба

Регистрация Запомнить меня
Войти через:  Facebook Google Twitter Vk Yandex Mail.ru

Misc Traditional - Amhrann Na Bhiain - таба

Печатать
Просмотров: 66
Tabbed by Chris Mullally, e-mail;chrismullally51@hotmail.
This didn^Òt take long to do and is my own work. I think it is
perfect apart from the last two parts, which are very iffy.I didnt include 
the words,everyone should know them (can't spell them anyway).
Please e-mail me with any corrections,comments.

Amhrann na bhiain/Irish national anthem

g----0-2--------------------------------------------
d^×3-----3-------------------------------------------
a---------3----------3---5-5-1-5^×3/5/3--------------
e---------------------------------------------------


g---------------------------------------------------
d^×3-2-0------2/3----5-7-5---------------------------
a--------------------------------5-7~ ~ ------------
e---------------------------------------------------

g----0-2--------------------------------------------
d^×3-----3-------------------------------------------
a----------3----------3---5-5-1-5^×3/5/3-------------
e---------------------------------------------------

g---------------------------------------------------
d---------------------------------------------------
a-7-7--7---5-6-5----3-3------3^×1-0-1-0-1/2----------
e---------------------------------------------------


g---------------------------------------------------
d---------------------------------------------------
a-3-5-3----7-5-3-1-0-1-------------------------
e---------------------------3-0----0--1--1/3^×5-

g---------------------------------------------------
d--------------------------------11-9-7-7~~~~~------
a-0-1/3^×5-7-9-----7-7-9-9---------------------------
e---------------------------------------------------


     
Добавлено: 13.08.2013
Другие материалы по этой песне:
  • Аккорды и текст

Страница создана 13.08.2013
http://primanota.ru/misc-traditional/amhrann-na-bhiain-chords.htm
Привет, Гость.
Предлагаем пройти революционный курс по гитаре.
Подарок от PrimaNota.Ru, забирай!