PrimaNota.ru - самый крупный в мире бесплатный архив песенных текстов, аккордов, табулатур и нот


Misc Traditional - 99 Bottles Of Beer On The Wall - таба, видео

Регистрация Запомнить меня
Войти через:  Facebook Google Twitter Vk Yandex Mail.ru

Misc Traditional - 99 Bottles Of Beer On The Wall - таба, видео

Печатать
Просмотров: 127
  99 bottles of beer on the wall 
  wrote by:unknown
  tabbed by: mike lusk   mikelusk@kissmyass.com>

 this is the first song i tabbed so i hope it sounds good

     






E------------------------------------------------------
B------------------------------------------------------
G------------------------------------------------------
D--0--0--0---------0--0--0--0--2--2--2---------2-------
A----------0--0--0---------------------2--2--2---------
E------------------------------------------------------

nighty nine bottles of beer on the.......



E-------------------------------------------------------
B-------------------------------------------------------
G-------------------------------------------------------
D-------------------------------------------0--0--0--0--
A--4---4--4---4--4--4--4---0--0--0--2--3--4-------------
E-------------------------------------------------------
                   (play this over 98 times)
                    
take one down pass it around.........





      send your comments to: mikelusk@kissmyass.com
     
Добавлено: 29.11.2013
Другие материалы по этой песне:
  • Аккорды и текст

Страница создана 29.11.2013
http://primanota.ru/misc-traditional/99-bottles-of-beer-on-the-wall-chords.htm
Привет, Гость.
Предлагаем пройти революционный курс по гитаре.
Подарок от PrimaNota.Ru, забирай!