PrimaNota.ru - самый крупный в мире бесплатный архив песенных текстов, аккордов, табулатур и нот


Misc Television - Wwe - The Truth Reigns - Roman Reigns - бас-таба, видео

Регистрация Запомнить меня
Войти через:  Facebook Google Twitter Vk Yandex Mail.ru

Misc Television - Wwe - The Truth Reigns - Roman Reigns - бас-таба, видео

Печатать
Просмотров: 76
Tuning: Dropped D (As it's bass you don't really need to tune lower for a harsh sound on something like this)

G|--------------------------|
D|--------------------------|
A|--------------------------|
D|12-0--10-0--7-0--5-3------|

Just rinse and repeat.

You COULD also play it like this:

G|--------------------------|
D|--------------------------|
A|14-0--12-0--9-0--5-3------|
D|12-0--10-0--7-0--5-3------|

Or you could play the first tab on the first two strings like this:
G|--------------------------|
D|--------------------------|
A|12-0--10-0--7-0--5-3------|
D|12-0--10-0--7-0--5-3------|

for a more powerful sound.


Leave suggestions in the comment box and rate fairly please! 
This is my first tab.
Добавлено: 15.03.2016
Другие материалы по этой песне:
  • Аккорды и текст

Страница создана 15.03.2016
http://primanota.ru/misc-television/wwe-truth-reigns-roman-reigns-chords.htm
Привет, Гость.
Предлагаем пройти революционный курс по гитаре.
Подарок от PrimaNota.Ru, забирай!