PrimaNota.ru - самый крупный в мире бесплатный архив песенных текстов, аккордов, табулатур и нот


Misc Television - Wwe - Shawn Michaels - Sexy Boy - бас-таба, видео

Регистрация Запомнить меня
Войти через:  Facebook Google Twitter Vk Yandex Mail.ru

Misc Television - Wwe - Shawn Michaels - Sexy Boy - бас-таба, видео

Печатать
Просмотров: 97
Уроки эстрадного вокала в Санкт-Петербурге
-------------------------------------------------------------------------------
                        Shawn Michaels - Sexy Boy - WWE
-------------------------------------------------------------------------------
Tabbed by: Stancranford
E-mail: simonhawkinsuk@gmail.com

Tuning: EADG

Intro

G|---------------------------------|
D|---------------------------------|
A|---------------------------------|
E|-0-0-0-0-0-0-0-0-0-0-0-0-0-0-0-0-|

Verse

G|---------------------------------------|--------------------------------------|
D|---------------------------------5-----|--------------------------------------|
A|---------3---------------------------7-|---------3----------------------------|
E|-5----5-----1----3----3--5-5-5---------|-5----5------1----3----3--5-5-5--5--5-|

Chorus

G|---------------------------------------------------------------|
D|---------------------------------------------------------------|
A|------------------------------------------------3-3-3-5--5-5-5-|
E|-5-5-5-5-3-3-3-3-1-1-1-3--3-3-3-5-5-5-5-3-3-3-3----------------|

G|-----------------------------------------------------------------|
D|-----------------------------------------------------------------|
A|--------------------------------------------------3-3-3-5--5-5-5-|
E|-5-5-5-5-3-3-3-3-1-1-1-3--3-3-3-5-5-5-5-5-5-5-5------------------|

Guitar Solo

G|------------------------------------------|-------------------------------------------|
D|------------------------------------------|-------------------------------------------|
A|---------3--------------------------------|---------3----------------------5-7-7-7-7--|
E|-5----5------1----3----3--5-5-5-5-5-5-5-5-|-5----5------1----3----3--5-5-5------------|

Order:
Intro x 1
Verse x 1        |
Chorus x 1       |
Verse x 1        |
Chorus x 1       |  Loop until End
Guitar Solo x 1  |
Chorus x 1       |



===============================================================================
Добавлено: 08.09.2015
Другие материалы по этой песне:

Страница создана 18.04.2012
http://primanota.ru/misc-television/wwe-shawn-michaels-sexy-boy-chords.htm
Привет, Гость.
Предлагаем пройти революционный курс по гитаре.
Подарок от PrimaNota.Ru, забирай!