PrimaNota.ru - самый крупный в мире бесплатный архив песенных текстов, аккордов, табулатур и нот


Misc Television - Wwe - Gangrel - Blood - бас-таба

Регистрация Запомнить меня
Войти через:  Facebook Google Twitter Vk Yandex Mail.ru

Misc Television - Wwe - Gangrel - Blood - бас-таба

Печатать
Просмотров: 96
Уроки эстрадного вокала в Санкт-Петербурге
-------------------------------------------------------------------------------
                             Gangrel - Blood - WWE
-------------------------------------------------------------------------------
Tabbed by: Stancranford
E-mail: simonhawkinsuk@gmail.com

Tuning: BEADG (5 String Bass)

Main Riff

G|---------------------------------------------------|
D|---------------------------------------------------|
A|-------------------------------------3-4-3---------|
E|-1--1-1--1--1--1-1--1--1--1-1--1--1--------4-3-3-1-|
B|---------------------------------------------------|

G|---------------------------------------------|
D|---------------------------------------------|
A|---------------------------------------------|
E|-1--1-1--1--1--1-1--1--1--1-1--1--1--1-1--1--|
B|---------------------------------------------|

Chorus

G|-----------------------------------------------------------------|
D|-----------------------------------------------------------------|
A|------------------1--1--1-1--1--1-----------------------3------3-|
E|-----------------------------------1--1--1-1--1--1---------------|
B|-2--2--2-2--2--2------------------------------------1------1-----|


Bridge

G|--------------------------------------------------|
D|--------------------------------------------------|
A|--------------------------------------------------|
E|-1--1-1--1--1--1-1--1--1--1-1--1--1--4-4--3-3--1--|
B|--------------------------------------------------|


Order:
Synth Intro
Main Riff x 1 |
Chorus x 1    | Loop Until End
Bridge x 1    |



===============================================================================
Добавлено: 08.09.2015
Другие материалы по этой песне:
  • Аккорды и текст

Страница создана 08.09.2015
http://primanota.ru/misc-television/wwe-gangrel-blood-chords.htm
Привет, Гость.
Предлагаем пройти революционный курс по гитаре.
Подарок от PrimaNota.Ru, забирай!