PrimaNota.ru - самый крупный в мире бесплатный архив песенных текстов, аккордов, табулатур и нот


Misc Television - Wwe - Fist - Mike Tyson - бас-таба, видео

Регистрация Запомнить меня
Войти через:  Facebook Google Twitter Vk Yandex Mail.ru

Misc Television - Wwe - Fist - Mike Tyson - бас-таба, видео

Печатать
Просмотров: 105
-------------------------------------------------------------------------------
                             Mike Tyson - Fist - WWE
-------------------------------------------------------------------------------
Tabbed by: Stancranford
E-mail: simonhawkinsuk@gmail.com

Tuning: Eb,Ab,Db,Gb

Intro

Gb|-x-7--7h9------7\------7-x-x-7h9----7-7-7h9\--|
Db|----------------------------------------------|
Ab|----------------------------------------------|
Eb|----------------------------------------------|
    T P  P        P       T T T P      P P P

Verse

Gb|---------------------------|
Db|---------------------------|
Ab|---------------------------|
Eb|-0----0--0----0---1h2p1h2--|

Chorus

Gb|---------------|
Db|---------------|
Ab|---7-5-7--2-3--|
Eb|-0-------------|

Bridge

Gb|--------------------------------------|
Db|------10h12--10\-------10h12--10-10\--|
Ab|--------------------------------------|
Eb|-0-0--------------0-0-----------------|
    T T  P      P    T T  P      P  P



| T  slap
| P  pop
| \  slide down
| h  hammer-on
| p  pull-off
| x  Mute note
===============================================================================
Добавлено: 08.09.2015
Другие материалы по этой песне:
  • Аккорды и текст

Страница создана 08.09.2015
http://primanota.ru/misc-television/wwe-fist-mike-tyson-chords.htm
Привет, Гость.
Предлагаем пройти революционный курс по гитаре.
Подарок от PrimaNota.Ru, забирай!