PrimaNota.ru - самый крупный в мире бесплатный архив песенных текстов, аккордов, табулатур и нот


Misc Television - Wwe - Finn Balor - Catch Your Breath - бас-таба

Регистрация Запомнить меня
Войти через:  Facebook Google Twitter Vk Yandex Mail.ru

Misc Television - Wwe - Finn Balor - Catch Your Breath - бас-таба

Печатать
Просмотров: 206
-------------------------------------------------------------------------------
                     Finn Balor - Catch Your Breath - WWE
-------------------------------------------------------------------------------
Tabbed by: Stancranford
E-mail: simonhawkinsuk@gmail.com

Tuning: DADG

Main Riff

G|----------------------------------------------------------|
D|-3-0--3-0-3-0--3-3-3-3-3-3-3--3-0--3-0-3-0--3-3-3-3-3-3-3-|
A|----------------------------------------------------------|
D|----------------------------------------------------------|

G|-----------------------------------------------------|
D|-----------------------------------------------------|
A|-3-0--3-0-3-------------------3-0--3-0-3-------------|
D|------------6--6-6-6-6-6-6-6-------------6-6-6-5-3-5-|

Verse

G|--------------------------------------------------------------------------------------------|
D|--------------------------------------------------------------------------------------------|
A|---------------------------------------------1--1--1-1-1-1-0-0-0--1-0-----------------------|
D|-0--0--0-0-3-0-0-6-5-3--6--6--6-6-6-6-5-5-5---------------------------5-3-5-0-3-5/8-8-8-8-8-|

Chorus

G|-----------------------------------------------------------------------|
D|-----------------------------------------------------------------------|
A|-------------------3-0--3-0-3-------------------3-0--3-0-3-------------|
D|-3-0------3-0-----------------6--6-6-6-6-6-6-6-------------6-6-6-5-3-5-|

End

G|-----|
D|-----|
A|-----|
D|-0---|


Order:
Guitar/Synth intro
Main Riff x 1     |
Verse x 2         |Loop x5
Chorus x 1        |
End x 1


| /  slide up

===============================================================================
Добавлено: 08.09.2015
Другие материалы по этой песне:
  • Аккорды и текст

Страница создана 08.09.2015
http://primanota.ru/misc-television/wwe-finn-balor-catch-your-breath-chords.htm
Привет, Гость.
Предлагаем пройти революционный курс по гитаре.
Подарок от PrimaNota.Ru, забирай!