PrimaNota.ru - самый крупный в мире бесплатный архив песенных текстов, аккордов, табулатур и нот


Misc Television - Wwe - Dudley Boyz - Were Coming Down - бас-таба

Регистрация Запомнить меня
Войти через:  Facebook Google Twitter Vk Yandex Mail.ru

Misc Television - Wwe - Dudley Boyz - Were Coming Down - бас-таба

Печатать
Просмотров: 60
-------------------------------------------------------------------------------
                    Dudley Boyz - We're Coming Down - WWE
-------------------------------------------------------------------------------
Tabbed by: Stancranford
E-mail: simonhawkinsuk@gmail.com

Tuning: Eb,Ab,Db,Gb

Main Riff
                  x3
Gb|-----------------|------------------|
Db|-----------------|------------------|
Ab|-----5h7---------|-----5h7----------|
Eb|-0-0------0-0-3--|-0-0------0-0-5-3-|

Verse 1

Gb|------------|
Db|------------|
Ab|------------|
Eb|-0-0--------|

Verse 2

Gb|----------------------------------------------------------|
Db|----------------------------------------------------------|
Ab|----------------------------------------------------------|
Eb|-0-0-3--0-0-3--0-0-3--0-0-3-5--0-0-3--0-0-3--0-0-3--5--3--|

Breakdown 1
              x3
Gb|------------|----------|
Db|------------|----------|
Ab|------------|----------|
Eb|-0-0--0-0-0-|-0-0--0-0-|

Breakdown 2
                                                         x6
Gb|--------------------------------------|-----------------|-----|
Db|--------------------------------------|-----------------|-----|
Ab|--------------------------------------|-----------------|-----|
Eb|-2-2-2-2-1-0---0---2-2-2-2-1-0---3/5--|-2-2-2-2-1-0-----|-0---|

Order:
Guitar Intro
Main Riff x 2
Rest
Verse 1 x 8
Verse 2 x 1
Rest
Main Riff x 1
Breakdown 1 x 1
Verse 2 x 1
Breakdown 2 x 1
Rest
Main Riff to fade out


| /  slide up
| h  hammer-on

===============================================================================
Добавлено: 08.09.2015
Другие материалы по этой песне:
  • Аккорды и текст

Страница создана 08.09.2015
http://primanota.ru/misc-television/wwe-dudley-boyz-were-coming-down-chords.htm
Привет, Гость.
Предлагаем пройти революционный курс по гитаре.
Подарок от PrimaNota.Ru, забирай!