PrimaNota.ru - самый крупный в мире бесплатный архив песенных текстов, аккордов, табулатур и нот


Misc Television - Wwe - D-generation X - Are You Ready - бас-таба, видео

Регистрация Запомнить меня
Войти через:  Facebook Google Twitter Vk Yandex Mail.ru

Misc Television - Wwe - D-generation X - Are You Ready - бас-таба, видео

Печатать
Просмотров: 99
-------------------------------------------------------------------------------
                      D-Generation X - Are You Ready? - WWE
-------------------------------------------------------------------------------
Tabbed by: Stancranford
E-mail: simonhawkinsuk@gmail.com

Tuning: Eb,Ab,Db,Gb

Fill 1

Gb|-------|
Db|-------|
Ab|-------|
Eb|-12\---|

Main Riff

Gb|----------------------------------------------------|
Db|----------------------------------------------------|
Ab|-------5------5-5-7-7-7-7--------5------2-2-3-3-2-2-|
Eb|-0-0-0----0-0--------------0-0-0----0-0-------------|

Chorus

Gb|-------------------------------------|
Db|-------------------------------------|
Ab|---7-5-7---2-3-------7-5-7---3-2-----|
Eb|-0-------------2-3-0-------------3\--|

Breakdown

Gb|-------------------------|
Db|-------------------------|
Ab|-------------------------|
Eb|-0-0---0-0---0-0---0-0---|

Order:
Vocal/Guitar Intro
Fill 1 x 1     |
Main Riff x 3  |Loop x 3
Chorus x 2     |
Breakdown x 1  |



| \  slide down

===============================================================================
Добавлено: 08.09.2015
Другие материалы по этой песне:
  • Аккорды и текст

Страница создана 08.09.2015
http://primanota.ru/misc-television/wwe-d-generation-x-are-you-ready-chords.htm
Привет, Гость.
Предлагаем пройти революционный курс по гитаре.
Подарок от PrimaNota.Ru, забирай!