PrimaNota.ru - самый крупный в мире бесплатный архив песенных текстов, аккордов, табулатур и нот


Misc Television - Unhappily Ever After - аккорды и текст, видео

Регистрация Запомнить меня
Войти через:  Facebook Google Twitter Vk Yandex Mail.ru

Misc Television - Unhappily Ever After - аккорды и текст, видео

Печатать
Просмотров: 94
Unhappily Ever After
Misc Television
Unhappily Ever After theme
Written by: Jon Wolff
Transcribed (sort of) by: Dan Miller

This tab is definitely wrong, and I'm hoping that someone will get angry with 
me and tab it themselves.  But here it is.

Chorus:
       A           C           G            E
1------0--0--------0--0--------0--0---------0--0-----------
2------2---2-------1---1-------0----0-------0---0----------
3------2----2------0----0------0------0-----0----0---------
4------2-----------2-----------0------------1--------------
5------0-----------3------------------------2--------------
6------------------------------3------------2--------------

End:
    A      B     E  
1---0------2-----0-----
2---2------4-----0-----
3---2------4-----0-----
4---2------4-----1-----
5---0------0-----2-----
6----------------2-----

I should mention that this is my first tab, and I don't much of anything.


     
Добавлено: 06.07.2013
Другие материалы по этой песне:
  • Аккорды и текст

Страница создана 06.07.2013
http://primanota.ru/misc-television/unhappily-ever-after-chords.htm
Привет, Гость.
Предлагаем пройти революционный курс по гитаре.
Подарок от PrimaNota.Ru, забирай!