PrimaNota.ru - самый крупный в мире бесплатный архив песенных текстов, аккордов, табулатур и нот


Misc Television - Thundercats - аккорды и текст, таба, видео

Регистрация Запомнить меня
Войти через:  Facebook Google Twitter Vk Yandex Mail.ru

Misc Television - Thundercats - аккорды и текст, таба, видео

Печатать
Просмотров: 104
Thundercats
Misc Television
Date: Wed, 6 Dec 2000 21:12:28 -0500
From: "Liam Burke" 
Subject: m/misc_television/thundercats.tab

Thundercats theme song
By Liam Burke
niftyguy6@hotmail.com


Riff A- Play this occasionally, and in the opening, play the second measure
(trumpets in the song itself) right after where Lion-O says Thundercats Ho!

E|-------------------|-----------------|
B|-------------------|-----------------|
G|-2-2---2-4p2-(2)---|-5-5--4-4--2-----|
D|-----0----------0--|------------(0)--|
A|-------------------|-----------------|
E|-------------------|-----------------|

  D
Thundercats ...
  B#
Thundercats ...
  D
Feel ...
  B#
Thundercats ...


For this part, tab the riff right after the vocal

Thunder Thunder Thunder Thundercats
(Riff B)
e|-----------------------------------|
B|-----------------------------------|
G|-4-4--6-6--7-7--9-9--11^^^^^^^^----|
D|-----------------------------------|
A|-----------------------------------|
E|-----------------------------------|

Thunder Thunder Thunder Thundercats
(Riff C)
e|------------------------------------------------------------------|
B|----------------------------------------------------15------------| (I'm not sure about
G|-7-7--9-9--11-11--12-12--14--14h16p14h16p14h16p14h16--------------|  this last part)
D|-------------------------------------------------------  
Добавлено: 12.07.2012
Другие материалы по этой песне:

Страница создана 12.07.2012
http://primanota.ru/misc-television/thundercats-chords.htm
Привет, Гость.
Предлагаем пройти революционный курс по гитаре.
Подарок от PrimaNota.Ru, забирай!