PrimaNota.ru - самый крупный в мире бесплатный архив песенных текстов, аккордов, табулатур и нот


Misc Television - The Addams Family Theme - таба, видео

Регистрация Запомнить меня
Войти через:  Facebook Google Twitter Vk Yandex Mail.ru

Misc Television - The Addams Family Theme - таба, видео

Печатать
Просмотров: 59
-------------------------------------------------------------------------------
                             Misc Television - The Addams Family Theme
-------------------------------------------------------------------------------
Tabbed by: Baklap4
E-mail: arjan.spieard@gmail.com

Tuning: Standard tuning

e|-------------------------------------------------------------------------------------|
B|-------------------------------------------------------------------------------------|
G|--------------x----x--------------x----x---------------------------------------------|
D|--------------x----x--------------x----x---------------------------------------------|
A|--------0--1--x----x--------2--3--x----x--------2--3--------2--3--------0--1---------|
E|--1--3--------x----x--3--5--------x----x--3--5--------3--5--------1--3--------S----S-|

e|-------------------------------------------------------------------------------------|
B|-------------------------------------------------------------------------------------|
G|--------------x----x----------------------------------------------------------x------|
D|--------------x----x----------------------------------------------------------x------|
A|--------0--1--x----x--------2--3----------------2--3--------2--3--------0--1--x------|
E|--1--3--------x----x--3--5--------S----S--3--5--------3--5--------1--3--------x-0000-|

e|-------------------------------------------------------------------------------------|
B|-------3---------1-------1-----------------3---------1-------------------------------|
G|----3----3----------1h2----2------3-----3----3---------3-2h3p2---0-2-3---------------|
D|--3---------3-1--------------3--0-----3---------3-1------------3---------------------|
A|-------------------------------------------------------------------------------------|
E|-------------------------------------------------------------------------------------|

e|-------------------------------------------------------------------------------------|
B|-------3---------1-------1-----------------3---------1-------------------------------|
G|----3----3----------1h2----2------3-----3----3---------3-2---0-2-3-------------------|
D|--3---------3-1--------------3--0-----3---------3-1--------3-------------------------|
A|-------------------------------------------------------------------------------------|
E|-------------------------------------------------------------------------------------|

e|-------------------------------------------------------------------------------------|
B|-------------------------------------------------------------------------------------|
G|--------------x----x----------------------------------------------------------x------|
D|--------------x----x----------------------------------------------------------x------|
A|--------0--1--x----x--------2--3----------------2--3--------2--3--------0--1--x------|
E|--1--3--------x----x--3--5--------S----S--3--5--------3--5--------1--3--------x-0000-|

e|-------------------------------------------------------------------------------------|
B|-------3---------1-------1-----------------3---------1-------------------------------|
G|----3----3----------1h2----2------3-----3----3---------3-2---0-2-3--x----x-----------|
D|--3---------3-1--------------3--0-----3---------3-1--------3--------x----x-----------|
A|--------------------------------------------------------------------x----x-----------|
E|--------------------------------------------------------------------x----x-----------|


************************************

| x   Muted strum
| S   Scratching strum
| h   Hammer on
| p   Pull off



************************************
Добавлено: 15.03.2016
Другие материалы по этой песне:

Страница создана 04.07.2012
http://primanota.ru/misc-television/the-addams-family-theme-chords.htm
Привет, Гость.
Предлагаем пройти революционный курс по гитаре.
Подарок от PrimaNota.Ru, забирай!