PrimaNota.ru - самый крупный в мире бесплатный архив песенных текстов, аккордов, табулатур и нот


Misc Television - Ren & Stimpy - аккорды и текст, таба, видео

Регистрация Запомнить меня
Войти через:  Facebook Google Twitter Vk Yandex Mail.ru

Misc Television - Ren & Stimpy - аккорды и текст, таба, видео

Печатать
Просмотров: 166
Ren & Stimpy
Misc Television
		   THE REN & STIMPY THEME SONG
                              "Dog Pound Hop"
                               Rhythm & Solo
                    Transcribed By Christopher J. Rizzo

          Here's my best shot at transcribing this very cool tune!

  INTRO:  I've attempted to indicate the rhythm by splitting each beat
          into 8th notes, and in a few parts 16th notes. If anyone has
          trouble with the timing grab your TV-remote, tune into Nick,
          and wait for R&S to grace your screen. Good luck!

       _____   _____   _____   _____   _____   _____   _____   _____
       |   |   |   |   |   |   |   |   |   |   |   |   |   |   |   |
       |   |   |   |   |   |   |   |   |   |   |   |   |   |   |   |
  E |--5---------------5---5---------|-5---------------5---5---------|
  B |--5---------------5---5---------|-5---------------5---5---------|
  G |--6---------------6---6---------|-6---------------6---6---------|
  D |--7---------------7---7---------|-7---------------7---7---------|
  A |--------------------------------|-------------------------------|
  E |--------------------------------|-------------------------------|

       _____   _____   _____   _____   _____   _____   _____   _____
       |   |   |   |   |   |   |   |   |   |   |   |   |   |   |   |
       |   |   |   |   |   |   |   |   |   |   |   |   |   |   |   |
  E |--7---------------7---7---------|-5---------------5---5---------|
  B |--7---------------7---7---------|-5---------------5---5---------|
  G |--7---------------7---7---------|-6---------------6---6---------|
  D |--9---------------9---9---------|-7---------------7---7---------|
  A |--------------------------------|-------------------------------|
  E |--------------------------------|-------------------------------|

       _____   _____   _____   _____   _____   _____   _____   _____
       |   |   |   |   |_| |   |  _|   |   |   |   |   |_| |   |  _|
       |   |   |   |   | | |   |   |   |   |   |   |   | | |   |   |
  E |--5---5---x---5---x-5---------x-|-5---5---x---5---x-5---------x-|
  B |--5---5---x---5---x-5---------x-|-5---5---x---5---x-5---------x-|
  G |--6---6---x---6---x-6---------x-|-6---6---x---6---x-6---------x-|
  D |--7---7---x---7---x-7---------x-|-7---7---x---7---x-7---------x-|
  A |--------------------------------|-------------------------------|
  E |--------------------------------|-------------------------------|

       _____   _____   _____   _____   _____   _____   _____   _____
       |   |   |   |   |_| |   |  _|   |   |   |   |   |_| |   |  _|
       |   |   |   |   | | |   |   |   |   |   |   |   | | |   |   |
  E |--7---7---x---7---x-7---------x-|-5---5---x---5---x-5---------x-|
  B |--7---7---x---7---x-7---------x-|-5---5---x---5---x-5---------x-|
  G |--7---7---x---7---x-7---------x-|-6---6---x---6---x-6---------x-|o
  D |--9---9---x---9---x-9---------x-|-7---7---x---7---x-7---------x-|o
  A |--------------------------------|-------------------------------|
  E |--------------------------------|-------------------------------|

  SOLO: Now, the good part. For the solo you'll probably need to listen
        to the song to get the right rhythm. I'm sure this isn't perfect,
	but here it is ...

  // = trempick
   p = pull-off

 E-|-----------14-17---17-17---15p14------15p14----14---------------------|
 B-|--14-15-17-----------------------17---------17----17-15-13------------|
 G-|-----------------------------------------------------------14---------|
 D-|----------------------------------------------------------------------|
 A-|----------------------------------------------------------------------|
 E-|----------------------------------------------------------------------|


 E-|----------------------------------------------------------------------|
 B-|--13p12----13-13---13p12----13-13--13p12----12------------------------|
 G-|--------14---------------14--------------14----14-12------------------|
 D-|-----------------------------------------------------14-12-10p9----10-|
 A-|----------------------------------------------------------------12----|
 E-|----------------------------------------------------------------------|

     //   //   //   //  //  //  //  //
 E-|-12---11---10---9---8---7---6---5---0p5-5-------------------4-5--7~~--|
 B-|-------------------------------------------8---7---5---5-7-------9~~--|
 G-|-----------------------------------------------------------------8~~--|
 D-|-----------------------------------------------------------------9~~--|
 A-|----------------------------------------------------------------------|
 E-|----------------------------------------------------------------------|

    Any improvments, comments, questions, suggestions welcome; e-mail me!

    Chris Rizzo                                "We're not hich-hicking
    ind01238@pegasus.cc.ucf.edu                 anymore, we're riding!"
    http://pegasus.cc.ucf.edu/~ind01238              - Ren Hoek
    University of Central Florida





     Full             1/4     Full      Full
|--5'---R---7p5---------------------------------------------------------7--7--
|---------------7p5----------5'--------5'--R--5-------------------5--7--------
|-------------------7'---R-------7---------------7--4--7----4--7--------------
|-----------------------------------------------------------------------------
|-----------------------------------------------------------------------------
|-----------------------------------------------------------------------------

           Full
|--7p5---10'-------10--7\5--7----|
|------7-------------------------|
|--------------------------------|
|--------------------------------|
|--------------------------------|
|--------------------------------|


-Legion
--
    "I'll have some! But you can skip Wolfgang here! He never drinks more
than one cup!"
    "Mind your own business, Gwen! I *will* have another cup
of Fern's coffee! It's not like the watery slop *you* make!" -- Mad Magazine     
Добавлено: 07.12.2013
Другие материалы по этой песне:

Страница создана 01.07.2012
http://primanota.ru/misc-television/ren-and-stimpy-chords.htm
Привет, Гость.
Предлагаем пройти революционный курс по гитаре.
Подарок от PrimaNota.Ru, забирай!