PrimaNota.ru - самый крупный в мире бесплатный архив песенных текстов, аккордов, табулатур и нот


Misc Television - Power Rangers Theme - аккорды и текст, таба, видео

Регистрация Запомнить меня
Войти через:  Facebook Google Twitter Vk Yandex Mail.ru

Misc Television - Power Rangers Theme - аккорды и текст, таба, видео

Печатать
Просмотров: 471
Power Rangers Theme
Misc Television
		   From bgoodman@atcon.com Wed Apr  9 12:49:58 1997



Title: Power Rangers Theme
Artist: ??????
Tabbed by Andrew Goodmanson
Comments: This is my first time tabbing a song, so please bear
          with me. I don't know who wrote this, but it sounds
          a lot like Eruption, doesn't it? It probably isn't
          100% correct, but it sounds pretty close.


      Opening Rhythm


E  +--------------------------------------------------------+
B  |--------------------------------------------------------|
G  |-----9-----9-----9------9---9/10------------------------|
D  |-----9-----9-----9------9---9/10------------------------|
A  |-----7-----7-----7------7---7/8-------------------------|
E  +-0-0---0-0---0-0----0-0---------------------------------+


     Tapping sequence

E  +--------------------------------------------------------+
B  |--------------------------------------------------------|
G  |-t12p9p5-t12p9p5-t12p9p5-t12p9p5--t14p11p7-t14p11p7-----|
D  |--------------------------------------------------------|
A  |--------------------------------------------------------|
E  +--------------------------------------------------------+


E  +--------------------------------------------------------+
B  |--------------------t12p7p4-t12p7p4-t12p7p4-t12p7p4-----|
G  |-t14p11p7-t14p11p7--------------------------------------|
D  |--------------------------------------------------------|
A  |--------------------------------------------------------|
E  +--------------------------------------------------------+


E  +--------------------------------------------------------+
B  |-t12p9p5-t12p9p5-t12p9p5-t12p9p5-t13p8p5-t13p8p5--------|
G  |--------------------------------------------------------|
D  |--------------------------------------------------------|
A  |--------------------------------------------------------|
E  +--------------------------------------------------------+


E  +--------------------------------------------------------+
B  |-t13p8p5-t13p8p5-t13p8p5-t13p8p5-t13p8p5-t13p8p5--------|
G  |--------------------------------------------------------|
D  |--------------------------------------------------------|
A  |--------------------------------------------------------|
E  +--------------------------------------------------------+


E  +--------------------------------------------------------+
B  |-12(let ring)-------------------------------------------]
G  |--------------------------------------------------------|
D  |--------------------------------------------------------|
A  |--------------------------------------------------------|
E  +--------------------------------------------------------+


      Main Theme


E  +---------19-17-------------------19-17------------------+
B  |------17-------19-20----------17-------20-19------------|
G  |--------------------------------------------------------|
D  |--------------------------------------------------------|
A  |--------------------------------------------------------|
E  +-0----------------------0-------------------------------+


    Questions or comments? E-mail me at moshmellows@hotmail.com
From moshmellows@hotmail.com Sun May  4 10:42:02 1997


--====================987654321_0==_
Content-Type: text/plain


    To whom it may concern,


   Attached to this email is my rendition of the Power Rangers Theme.
 I'd just like to take this oppurtunity to tell how how great the
  is. It is my favorite site by far and I visit it at least once
 every day. Keep up the good work!


                                    Andrew Goodmanson

---------------------------------------------------------
Get Your *Web-Based* Free Email at http://www.hotmail.com
---------------------------------------------------------

--====================987654321_0==_
Content-Type: text/plain; name="ranger.txt"
Content-Disposition: attachment; filename="ranger.txt"

Title: Power Rangers Theme
Artist: ??????
Tabbed by Andrew Goodmanson
Comments: This is my first time tabbing a song, so please bear
          with me. I don't know who wrote this, but it sounds
          a lot like Eruption, doesn't it? It probably isn't
          100% correct, but it sounds pretty close.


      Opening Rhythm


E  +--------------------------------------------------------+
B  |--------------------------------------------------------|
G  |-----9-----9-----9------9---9/10------------------------|
D  |-----9-----9-----9------9---9/10------------------------|
A  |-----7-----7-----7------7---7/8-------------------------|
E  +-0-0---0-0---0-0----0-0---------------------------------+


     Tapping sequence

E  +--------------------------------------------------------+
B  |--------------------------------------------------------|
G  |-t12p9p5-t12p9p5-t12p9p5-t12p9p5--t14p11p7-t14p11p7-----|
D  |--------------------------------------------------------|
A  |--------------------------------------------------------|
E  +--------------------------------------------------------+


E  +--------------------------------------------------------+
B  |--------------------t12p7p4-t12p7p4-t12p7p4-t12p7p4-----|
G  |-t14p11p7-t14p11p7--------------------------------------|
D  |--------------------------------------------------------|
A  |--------------------------------------------------------|
E  +--------------------------------------------------------+


E  +--------------------------------------------------------+
B  |-t12p9p5-t12p9p5-t12p9p5-t12p9p5-t13p8p5-t13p8p5--------|
G  |--------------------------------------------------------|
D  |--------------------------------------------------------|
A  |--------------------------------------------------------|
E  +--------------------------------------------------------+


E  +--------------------------------------------------------+
B  |-t13p8p5-t13p8p5-t13p8p5-t13p8p5-t13p8p5-t13p8p5--------|
G  |--------------------------------------------------------|
D  |--------------------------------------------------------|
A  |--------------------------------------------------------|
E  +--------------------------------------------------------+


E  +--------------------------------------------------------+
B  |-12(let ring)-----------------------------------------------------|
G  |--------------------------------------------------------|
D  |--------------------------------------------------------|
A  |--------------------------------------------------------|
E  +--------------------------------------------------------+


      Main Theme


E  +---------19-17-------------------19-17------------------+
B  |------17-------19-20----------17-------20-19------------|
G  |--------------------------------------------------------|
D  |--------------------------------------------------------|
A  |--------------------------------------------------------|
E  +-0----------------------0-------------------------------+


    Questions or comments? E-mail me at moshmellows@hotmail.com




--====================987654321_0==_
Content-Type: text/plain

--====================987654321_0==_--     
Добавлено: 30.06.2013
Другие материалы по этой песне:

Страница создана 01.03.2012
http://primanota.ru/misc-television/power-rangers-theme-chords.htm
Привет, Гость.
Предлагаем пройти революционный курс по гитаре.
Подарок от PrimaNota.Ru, забирай!