PrimaNota.ru - самый крупный в мире бесплатный архив песенных текстов, аккордов, табулатур и нот


Misc Television - Petyr Baelish Theme Song - таба, видео

Регистрация Запомнить меня
Войти через:  Facebook Google Twitter Vk Yandex Mail.ru

Misc Television - Petyr Baelish Theme Song - таба, видео

Печатать
Просмотров: 61
-------------------------------------------------------------------------------
                 Petyr Baelish Theme Song - Game of Thrones
-------------------------------------------------------------------------------
Tabbed by: Henrique Goldenstein
E-mail: henriquegold81@gmail.com

Tuning: Standard


CAPO AT FIRST FRET


e|-------------------------|
B|----0--------------------|
G|---------0---------------|
D|--------------4----------|
A|-------------------------|
E|-------------------------|

e|-------------------------|
B|-------------------------|
G|----4----6----0----------|
D|-------------------4-----|
A|-------------------------|
E|-------------------------|

e|-------------------------|
B|----2----3---------------|
G|--------------0----------|
D|-------------------4-----|
A|-------------------------|
E|-------------------------|

e|-------------------------|
B|----3----2---------------|
G|--------------0----------|
D|-------------------4-----|
A|-------------------------|
E|-------------------------|

e|---------|
B|----2----|
G|---------|
D|---------|
A|---------|
E|---------|



repeat everything 10x, then end with an 0 on the B string
Добавлено: 06.04.2016
Другие материалы по этой песне:
  • Аккорды и текст

Страница создана 06.04.2016
http://primanota.ru/misc-television/petyr-baelish-theme-song-chords.htm
Привет, Гость.
Предлагаем пройти революционный курс по гитаре.
Подарок от PrimaNota.Ru, забирай!