PrimaNota.ru - самый крупный в мире бесплатный архив песенных текстов, аккордов, табулатур и нот


Misc Television - Law and order - таба, видео

Регистрация Запомнить меня
Войти через:  Facebook Google Twitter Vk Yandex Mail.ru

Misc Television - Law and order - таба, видео

Печатать
Просмотров: 137
Уроки эстрадного вокала в Санкт-Петербурге


Law and Order Theme Song
By: Richard Sierra

Note: This is not complete,
it is just the intro.

|--------------------|After this part, the
|--------------------|drums play on the rim
|-------0-0-0--2--3--|of the snare drum 3x.
|-------0-0-0--2--3--|If you want, just tap
|--------------------|your pick against the
|-1-3----------------|guitar's body.

|----------------------|
|----------------------|
|-------0-0-0--2--3--2-|
|-------0-0-0--2--3--2-|
|----------------------|
|-1-3------------------|

|-----------------|grab the 5th string,
|-----------------|pull and let go,
|-----------------|to create the
|-----------------|bass sound.
|--8-8-8-8-8-8h10-|
|-----------------|

|----------------|
|----------------|
|-0-0-0--2--3--2-|
|-0-0-0--2--3--2-|
|----------------|
|----------------|

|--------------------5--------------|
|-----------6---6--8---6----8-------|
|--5^5-5-5----5----------5-----8--5-|
|-----------------------------------|
|-----------------------------------|
|-----------------------------------|

|---5--------------|
|-8---6----8-------|
|-------5-----8--5-|
|------------------|
|------------------|
|------------------|


Добавлено: 15.12.2013
Другие материалы по этой песне:
  • Аккорды и текст

Страница создана 15.12.2013
http://primanota.ru/misc-television/law-and-order-chords.htm
Привет, Гость.
Предлагаем пройти революционный курс по гитаре.
Подарок от PrimaNota.Ru, забирай!