PrimaNota.ru - самый крупный в мире бесплатный архив песенных текстов, аккордов, табулатур и нот


Misc Television - Ecw Theme - бас-таба, видео

Регистрация Запомнить меня
Войти через:  Facebook Google Twitter Vk Yandex Mail.ru

Misc Television - Ecw Theme - бас-таба, видео

Печатать
Просмотров: 66
-------------------------------------------------------------------------------
                             ECW Theme Song - ECW
-------------------------------------------------------------------------------
Tabbed by: Stancranford
E-mail: simonhawkinsuk@gmail.com

Tuning:DADG

Intro
                x4
G|---------------|-----------------------------------------------|
D|---------------|-----------------------------------------------|
A|---------------|-----------------------------------------------|
D|-0-1-0---0-----|-0-1-0--0-0---0-1-0--0---0-1-0--0-0---0-1-0----|

Main Riff

G|----------------|
D|----------------|
A|----------------|
D|-0-1-0--0--0----|

Breakdown
                    x3
G|-------------------|--------------------|
D|-------------------|--------------------|
A|-------------------|--------------/5\---|
D|-0-1-0--0-0-0-0-0--|-0-1-0--0-0-0-------|

Outro 

G|------------------------------------------------------------------------------|
D|------------------------------------------------------------------------------|
A|------------------------------------------------------------------------------|
D|-0-1-0--0-0-0-3-1-0--0-1-0--0-0--0--0-1-0--0-0-0-1-3-1--0-1-0--0-0-0-1-0-1----|

G|------------------------------------------------------------------------------|
D|------------------------------------------------------------------------------|
A|------------------------------------------------------------------------------|
D|-0-1-0--0-0-0-1-3-1--0-1-0--0-0--0--0--0-1-0--0-0-0-1-3-1--0-1-0--0-0--0--0---|
                    x3                                         x3
G|-------------------|---------------------|--------------------|
D|-------------------|---------------------|--------------------|
A|-------------------|---------------------|--------------------|
D|-0-1-0--0-0--0--0--|-0-1-0--0-0-3-1-0-1--|-0-1-0--0-0--0--0---|

G|---------------------|
D|---------------------|
A|---------------------|
D|-0-1-0-1-3-1-0-1--0--|

Order:

Intro x 1
Main Riff x 24
Breakdown x 1
Main Riff x 8
Outro x 1


| /  slide up
| \  slide down
| h  hammer-on
| p  pull-off
| ~  vibrato
| +  harmonic
| x  Mute note
===============================================================================
Добавлено: 08.09.2015
Другие материалы по этой песне:
  • Аккорды и текст

Страница создана 08.09.2015
http://primanota.ru/misc-television/ecw-theme-chords.htm
Привет, Гость.
Предлагаем пройти революционный курс по гитаре.
Подарок от PrimaNota.Ru, забирай!