PrimaNota.ru - самый крупный в мире бесплатный архив песенных текстов, аккордов, табулатур и нот


Misc Television - Community - His Name Was Alex A Starburns Memorial - таба

Регистрация Запомнить меня
Войти через:  Facebook Google Twitter Vk Yandex Mail.ru

Misc Television - Community - His Name Was Alex A Starburns Memorial - таба

Печатать
Просмотров: 100
his name was alex: a starburns memorial - tro-bed records


community 


TRANSCRIBED BY RUDY GUZMAN


guzman_84@hotmail.com



alex "starburns" osbourne 1972 - 2012


RIP MCA
   
  gt1
e:-------------------------------------------------------------------------------|
B:-------------------------------------------------------------------------------|
G:-11h12h14--12-11-12--11----11------------------------------------------------9-|
D:------------------------14----14-12-14--9h10h12--10-9-10-9-----------9----11---|
A:------------------------------------------------------------12-10-12---12------|
E:-------------------------------------------------------------------------------|
  gt2                                          
e:-------------------------------------------------------------|
B:-7h8h10--8-7-8--7---7--------------------------------------5-|
G:------------------9---9--7-9--4h5h7--5-4-5--4--------4---6---|
D:----------------------------------------------7-5--7---7-----|
A:-------------------------------------------------------------|
E:-------------------------------------------------------------|

  gt1
e:---------------------------------------------------------------------------------------|
B:-18-17-15-17-15----15------------------------------------------------------------------|
G:----------------17----17-15-14--12h14h15-14-12--14h15p14h15p14h15p14h15p14-12----------|
D:------------------------------------------------------------------------------15-(15)\-|
A:---------------------------------------------------------------------------------------|
E:---------------------------------------------------------------------------------------|
  gt2
e:-13-12-10-12-10----10----------------------------------------------------------------|
B:----------------13----13-11-10--8h10h11-10-8--10h11p10h11p10h11p10h11p10--8----------|
G:----------------------------------------------------------------------------10-(10)\-|
D:-------------------------------------------------------------------------------------|
A:-------------------------------------------------------------------------------------|
E:-------------------------------------------------------------------------------------|


e:------------------------------|
B:------------------------------|
G:-----7-----7-----7---7----7-7-|
D:-----7-----7-----7---7----7-7-|
A:-5-5---5-5---5-5---5---5--5-5-|
E:------------------------------|

  verse
   you ever seen the dawn when you have blood in your eyes...          x2
e:-----------------------------------------------------------------------|
B:-----------------------------------------------------------------------|
G:-----7-----7-----7-----7------7-7------10-----10---10------5-----5---5-|
D:-----7-----7-----7-----7------7-7------10-----10---10------5-----5---5-|
A:-5-5---5-5---5-5---5-5---5-5--5-5--8-8----8-8----8-----3-3---3-3---3---|
E:-----------------------------------------------------------------------|

  chorus
    starburns...                                                        x2
e:------------------------------------------------------------------------|
B:------------------------------------------------------------------------|
G:-3-----------------5---------------------------------7--7-7-7-7-7-7-7-7-|
D:-3--3-3-3-3-3-3-3--5--5-5-5-5-5-5-5--3--3-3--7--7-7--7--7-7-7-7-7-7-7-7-|
A:-1--1-1-1-1-1-1-1--3--3-3-3-3-3-3-3--3--3-3--7--7-7--5--5-5-5-5-5-5-5-5-|
E:-------------------------------------1--1-1--5--5-5---------------------|

e:------------------------------------|
B:------------------------------------|
G:-3-----------------5----------------|
D:-3--3-3-3-3-3-3-3--5--5-5-5-5-5-5-5-|
A:-1--1-1-1-1-1-1-1--3--3-3-3-3-3-3-3-|
E:------------------------------------|


  gt1
e:---------------------------------------------------------------------------------------|
B:-18-17-15-17-15----15------------------------------------------------------------------|
G:----------------17----17-15-14--12h14h15-14-12--14h15p14h15p14h15p14h15p14-12----------|
D:------------------------------------------------------------------------------15-(15)\-|
A:---------------------------------------------------------------------------------------|
E:---------------------------------------------------------------------------------------|
  gt2
e:-13-12-10-12-10----10----------------------------------------------------------------|
B:----------------13----13-11-10--8h10h11-10-8--10h11p10h11p10h11p10h11p10--8----------|
G:----------------------------------------------------------------------------10-(10)\-|
D:-------------------------------------------------------------------------------------|
A:-------------------------------------------------------------------------------------|
E:-------------------------------------------------------------------------------------|





hillo son mex

04/05/12
Добавлено: 06.08.2013
Другие материалы по этой песне:
  • Аккорды и текст

Страница создана 06.08.2013
http://primanota.ru/misc-television/community-his-name-was-alex-a-starburns-memorial-chords.htm
Привет, Гость.
Предлагаем пройти революционный курс по гитаре.
Подарок от PrimaNota.Ru, забирай!