PrimaNota.ru - самый крупный в мире бесплатный архив песенных текстов, аккордов, табулатур и нот


Misc Television - Check It Out With Dr Steve Brule Theme - таба, видео

Регистрация Запомнить меня
Войти через:  Facebook Google Twitter Vk Yandex Mail.ru

Misc Television - Check It Out With Dr Steve Brule Theme - таба, видео

Печатать
Просмотров: 99
-------------------------------------------------------------------------------
                            Check It Out! with Dr. Steve Brule
-------------------------------------------------------------------------------
Not sure how many people know of this, but here's my interpretation of the part of the theme after
the flag. Any corrections just comment.

Tuning: Standard

e|-5-3-1-1h3p1---------------------------------------------------------------|
B|-------------1-1-6p5-3-3h5p3-1---------------------------------------------|
G|---------------------------------------------------------------------------|
D|---------------------------------------------------------------------------|
A|---------------------------------------------------------------------------|
E|---------------------------------------------------------------------------|

And then this is the part during the intro montage thing, play it twice.


e|-------------------0-1-0---------------------------------------------------|
B|-1-------------1-3-------3-1-1---------------------------------------------|
G|---0-----------------------------------------------------------------------|
D|---------------------------------------------------------------------------|
A|---------------------------------------------------------------------------|
E|---------------------------------------------------------------------------|

************************************

| /   slide up
| \   slide down
| h   hammer-on
| p   pull-off
| ~   vibrato
| +   harmonic
| x   Mute note
| b   Bend
| pb  Pre-bend
| br  Bend release
| pbr Pre-bend release
| brb Bend release bend

************************************
Добавлено: 17.08.2013
Другие материалы по этой песне:
  • Аккорды и текст

Страница создана 17.08.2013
http://primanota.ru/misc-television/check-it-out-with-dr-steve-brule-theme-chords.htm
Привет, Гость.
Предлагаем пройти революционный курс по гитаре.
Подарок от PrimaNota.Ru, забирай!