PrimaNota.ru - самый крупный в мире бесплатный архив песенных текстов, аккордов, табулатур и нот


Misc Television - Buffy The Vampire Slayer - таба, видео

Регистрация Запомнить меня
Войти через:  Facebook Google Twitter Vk Yandex Mail.ru

Misc Television - Buffy The Vampire Slayer - таба, видео

Печатать
Просмотров: 118
Уроки эстрадного вокала в Санкт-Петербурге
Buffy the vampire Slayer
tabed by charles Dumais
Tuned in Eb


organ\wolf

big pick slide
#1(play this once)
|----------------------------------------------------------|
|----------------------------------------------------------|
|-9/10~------------------------------------------------8~--|
|-9/10~------------------10/13~-----10/13~-----------------|
|-7/8~-----10--10/11-----10/13~-----10/13~---8--8/10---6~--|
|-------------------------9/11~------9/11~-----------------|


big pick slide
#2(play once)
|-----------------------------------------------------------|
|-----------------------------------------------------------|
|-9/10~-----------------------------------------------------|
|-9/10~------------------------10/13~-------------10/13~----|
|-7/8~--8888888888--10--10/11--10/13~-------------10/13~----|
|-------------------------------9/11~--1111111111--9/11~--11|
             *                                 *
#2 continued
|-----------------------------------------------------------|
|-----------------------------------------------------------|
|-----------------------5/8~--------------------------------|
|-------------------------------------------\\\\\\\\\-------|
|------------8--8/10----2/6~--66666666666----\\\\\\\\\------|
|-11111111--------------------------------------------------|
     *                              *

#3(two guitar part played once)
|------------------------------------------------|
|--11~---11/12----11----9~--9---8~---------------|
|------------------------------------------------|
|--8~-----8/10-----8----6~--6---5~--\\\\\\\\\----|
|-----------------------------------\\\\\\\\\----|
|------------------------------------------------|

#4(played once)
|--------------11--11h13---------------11--11h13-11----------------|
|--13131313etc.-----------13131313etc.---------------11111111etc.--|
|------------------------------------------------------------------|
|------------------------------------------------------------------|
|------------------------------------------------------------------|
|------------------------------------------------------------------|

#4(continued)       *               *
|-11--11h13-11----------------------------------------------------|
|---------------11111111etc.--1212121212etc.------13~~~~~--13~~~~~|
|-----------------------------------------------------------------|
|-----------------------------------------------------------------|
|-----------------------------------------------------------------|
|-----------------------------------------------------------------|


#5(small pick slide)
|-----------------------------------------------------------------|
|-----------------------------------------------------------------|
|---------10~~~~~~~~~~~~~~~~--------------------------------------|
|--\\\\\--10~~~~~~~~~~~~~~~~~-------------------------------------|
|---\\\\\-8~~~~~~~~~~~~~~~~~~-------------------------------------|
|---------8~~~~~~~~~~~~~~~~~~-------------------------------------|

note:* there are not ones(111111) only 11-11-11-and -6-6-6-6 and
                  13-13-13- and 12-12-12 and 8-8-8

And of course I spent hours trying to figure out these parts so please
don't claim this work yours.It's all my own work.And hey, if have any other 
request please
e-mail me at Charlz_dumais@hotmail.com
     
Добавлено: 01.11.2013
Другие материалы по этой песне:

Страница создана 23.03.2012
http://primanota.ru/misc-television/buffy-the-vampire-slayer-chords.htm
Привет, Гость.
Предлагаем пройти революционный курс по гитаре.
Подарок от PrimaNota.Ru, забирай!