PrimaNota.ru - самый крупный в мире бесплатный архив песенных текстов, аккордов, табулатур и нот


Misc Television - Bonanza - таба, видео

Регистрация Запомнить меня
Войти через:  Facebook Google Twitter Vk Yandex Mail.ru

Misc Television - Bonanza - таба, видео

Печатать
Просмотров: 88
                              (THEME FROM) BONANZA
             (From the 1986 Album TELEVISION'S GREATEST HITS VOL I)

Music by Ray Evans and Jay Livingston
Transcribed by Bill W / Chris R

 4/4
  Gtr I
|-----------------------|---------------|------------------|------------|
|-----------------------|----0----------|------------------|------------|
|-----------------------|-0-------------|------------------|-----0------|
|-0-0-0-0-0-0-0-0-0-0-0-|---------0-0-0-|-0-0-0-0-0--0-0-0-|-2-4--------|
|-----------------------|---------------|------------------|------------|
|-----------------------|---------------|------------------|------------|


|-----------------------|----0----------|------------------|-------------|
|-----------------------|-1-------------|------------------|---0-1-------|
|-0-0-0-0-0-0-0-0-0-0-0-|---------0-0-0-|-0-0-0-0-0--0-0-0-|-2-----------|
|-----------------------|---------------|------------------|-------------|
|-----------------------|---------------|------------------|-------------|
|-----------------------|---------------|------------------|-------------|


|---------------|--------------|
|-0-3-----------|-----0--------|
|-----0----0----|-0-0---0-2----|
|--------2------|--------------|
|------------3--|--------------|
|---------------|--------------|


|-----------------------|---------------|------------------|-------------|
|-----------------------|----0----------|------------------|-------------|
|-----------------------|-0-------------|------------------|-----0-------|
|-0-0-0-0-0-0-0-0-0-0-0-|---------0-0-0-|-0-0-0-0-0--0-0-0-|-2-4---------|
|-----------------------|---------------|------------------|-------------|
|-----------------------|---------------|------------------|-------------|


|------------|--------------|
|-------0----|-(0)--1--3----|
|----0-------|--------------|
|-0----------|--------------|
|------------|--------------|
|------------|--------------|



****************************************************************************
* Generated using Power Tab Editor by Brad Larsen -
http://powertab.guitarnetwork.org *
****************************************************************************
     
Добавлено: 29.11.2013
Другие материалы по этой песне:
  • Аккорды и текст

Страница создана 25.08.2013
http://primanota.ru/misc-television/bonanza-chords.htm
Привет, Гость.
Предлагаем пройти революционный курс по гитаре.
Подарок от PrimaNota.Ru, забирай!