PrimaNota.ru - самый крупный в мире бесплатный архив песенных текстов, аккордов, табулатур и нот


Misc Television Song - Star Trek Tos Spocks Theme Music From Amok Time - бас-таба

Регистрация Запомнить меня
Войти через:  Facebook Google Twitter Vk Yandex Mail.ru

Misc Television Song - Star Trek Tos Spocks Theme Music From Amok Time - бас-таба

Печатать
Просмотров: 126
Transcribed by Richard Tetta
richard.tetta@gmail.com

This is the signature "Mr. Spock Theme" as heard in such episodes as "Amok Time" and "Journey to Babel"

G|-----------------------------|---------------------------------|
D|---------5-------------------|--------5-------------5----------|
A|-------4---3-1-3-1-3-1-------|------4---3-1-3-1---3---5-3------|
E|-3-3-3-----------------1-3-4-|3-3-3-------------4--------------|

G|-3-5-3-------1-3-1-------|-------------------------------------|
D|-------------------------|---6-5---5-3---3---------------------|
A|-------3-3-3-------3-3-3-|-3-----3---------6---6-5---------3---|
E|-------------------------|-------------4-----3-----3-3-3-6-----|
Добавлено: 28.08.2015
Другие материалы по этой песне:
  • Аккорды и текст

Страница создана 28.08.2015
http://primanota.ru/misc-television-song/star-trek-tos-spocks-theme-music-from-amok-time-chords.htm
Привет, Гость.
Предлагаем пройти революционный курс по гитаре.
Подарок от PrimaNota.Ru, забирай!