PrimaNota.ru - самый крупный в мире бесплатный архив песенных текстов, аккордов, табулатур и нот


Misc Soundtrack - Willy Wonka - таба, видео

Регистрация Запомнить меня
Войти через:  Facebook Google Twitter Vk Yandex Mail.ru

Misc Soundtrack - Willy Wonka - таба, видео

Печатать
Просмотров: 146
Уроки эстрадного вокала в Санкт-Петербурге
Hi! This is my first "tab", not that it matters,
but a lot of other people say it, so I will too.
This tab is all my own work, by ear of course.

Song: Pure Imagination
This song is from the Willy Wonka and the Chocolate Factory soundtrack

h = hammer on

p = pull off

/ = slide up/down
Transcribed by: Myles Joshua Nielson III, on january 21, 2004 @ 10 PM.

come with me, and you'll be...
|-----------------------------------------------------------------------
|-----------------------------------------------------------------------
|-----------------------------------------------------------------------
|----------5-----------5-----------9-10-9-10-9-10-9-5---------------3-
|--0---3-------0---3-------0---3------------------------0---3---7------
|-----------------------------------------------------------------------

|-----|------------------------------------------------------------------
|-----|------------------------------------------------------------------
|-----|------------------------------------------------------------------
|5----|------------------------------------------------------------------
|----7|---5---3----------------------------------------------------------
|-----|-----------7-8-7-8-7----------------------------------------------

alternate ending:
|---------------------------------------
|---------------------------------------
|---------------------------------------
|--0---------9--------------------------
|------7--8-----------------------------
|---------------8--9--10----------------
  feel free to mess around with the ending and add any hammer
  on's or pull offs or, slides or whatever.
  this is a great song, i've always like it.
  i'm going to win the guitar duel, and steve sucks.
  i hope you like the way it sounds, have fun!

_________________________________________________________________
     
Добавлено: 02.08.2013
Другие материалы по этой песне:
  • Аккорды и текст

Страница создана 02.08.2013
http://primanota.ru/misc-soundtrack/willy-wonka-chords.htm
Привет, Гость.
Предлагаем пройти революционный курс по гитаре.
Подарок от PrimaNota.Ru, забирай!