PrimaNota.ru - самый крупный в мире бесплатный архив песенных текстов, аккордов, табулатур и нот


Misc Soundtrack - Whiplash - Whiplash - бас-таба, видео

Регистрация Запомнить меня
Войти через:  Facebook Google Twitter Vk Yandex Mail.ru

Misc Soundtrack - Whiplash - Whiplash - бас-таба, видео

Печатать
Просмотров: 145
Уроки эстрадного вокала в Санкт-Петербурге
-------------------------------------------------------------------------------
                             Whiplash - OST Whiplash Movie
-------------------------------------------------------------------------------
Tabbed by: z74nk
E-mail: z74nk@yahoo.co.id

I'm sorry if there are some mistakes appeared in this tab, especially at Outro.
Hope you guys like it.

Tuning: Standard (EADG)
Big Band Jazz
7/8 Beat (14/8 in the Movie)

Intro
Play unison with piano
G|-R-|-5--3-------------------|------|------------------------|
D|-E-|------6-5----4--3-------|------|-----------3-4--3-------|
A|-S-|-----------3-------3-6--|-3--x-|-3--3-5-6----------6-3--|
E|-T-|------------------------|------|------------------------|

G|-R-|-5--3-------------------|------|---|
D|-E-|------6-5----4--3-------|------|---|
A|-S-|-----------3-------3--6-|-3--x-|---|
E|-T-|------------------------|------|-3-|

(0:16)
G|-------------------|-------------------|
D|-------------------|-------------------| 4x
A|-3-------3---------|-3-------6----4----| 
E|------------3-6--3-|------------3----3-| 

(0:31)
G|---------------------|---------------------|
D|------5--------------|------5--------------| 3x
A|-3--3------3---------|-3--3------6----4----| 
E|--------------3-6--3-|--------------3----3-| 

(0:43)
G|---------------------|-----------------------|
D|------5--------------|-----------5-5--5-5----|
A|-3--3------3---------|------5-5------------3-|
E|--------------3-6--3-|-4-4-------------------| 

Drum roll (0:47)
G|------|
D|------| 7x
A|-3--x-| 
E|------|

(1:01)
G|---------------|
D|----------5--5-|
A|-3--x----------| 
E|---------------|

(1:03)
G|---------------|
D|----------5--5-| 4x
A|-3-------------| 
E|---------------|

Follow the bass drum beat (1:10)
G|---------------------|
D|---------------------| 3x
A|-3--3--3---3---3--3--|
E|---------------------|

(1:16)
G|---------------------|
D|---------------5--5--|
A|-3--3--3---3---------|
E|---------------------|

(1:18)
G|---------------------|---------------------|
D|------5--------------|------5--------------| 4x
A|-3--3------3---------|-3--3------6----4----| 
E|--------------3-6--3-|--------------3----3-| 

Drum roll (1:34)
G|------|------|----------------|------------------|---------------------|---------------------|
D|------|------|-------5--5-----|-5--x--------5--5-|-------5---5------5--|-----5---5-----5--5--|
A|-3--x-|-3--x-|-3--x--------3--|------------------|-3--3----------3-----|-3----------3--------| 
E|------|------|----------------|------------------|---------------------|---------------------|

G|--------------------|-----------------|--------------|---||
D|--------------------|-------5---5--5--|--------5--5--|---|| END
A|-3---3---6---4---3--|-3---4-----------|-3------------|-3-||
E|--------------------|-----------------|--------------|---||


| /  slide up
| \  slide down
| h  hammer-on
| p  pull-off
| ~  vibrato
| +  harmonic
| x  Mute note
===============================================================================
Добавлено: 26.08.2015
Другие материалы по этой песне:

Страница создана 03.06.2015
http://primanota.ru/misc-soundtrack/whiplash-whiplash-chords.htm
Привет, Гость.
Предлагаем пройти революционный курс по гитаре.
Подарок от PrimaNota.Ru, забирай!