PrimaNota.ru - самый крупный в мире бесплатный архив песенных текстов, аккордов, табулатур и нот


Misc Soundtrack - Vanilla Sky - таба, видео

Регистрация Запомнить меня
Войти через:  Facebook Google Twitter Vk Yandex Mail.ru

Misc Soundtrack - Vanilla Sky - таба, видео

Печатать
Просмотров: 136
Уроки эстрадного вокала в Санкт-Петербурге
Song: Mondo '77
Artist: Looper
Tabbed By: Corey Martin  aliencrystal@hotmail.com>

This song is on the Vanilla Sky soundtrack, my friend figured it out
on his keyboard and i just transferred it to guitar.


Main refrain:

e|-----6--9--11--|------6--9--11---|-----6--9--11--|-----6--9--11---|
B|---------------|-----------------|---------------|----------------|
G|--3------------|--3------------3-|---------------|----------------|
D|---------------|-----------------|--4------------|--4-----------4-|
A|---------------|-----------------|---------------|----------------|
E|---------------|-----------------|---------------|----------------|


e|-----4--8--9---|-------4--8--9---|------4--8--9--|-----4--8--9----|
B|---------------|-----------------|---------------|----------------|
G|---------------|-----------------|---------------|----------------|
D|---------------|-----------------|--6------------|--6-----------6-|
A|-4-------------|--4------------4-|---------------|----------------|
E|---------------|-----------------|---------------|----------------|


Different Part:

e|---6--9--11--13--14--13--11--9--|---6--9--11--13--14--13--11--9-|
B|--------------------------------|-------------------------------|
G|-3------------------------------|-------------------------------|
D|--------------------------------|-4-----------------------------|
A|--------------------------------|-------------------------------|
E|--------------------------------|-------------------------------|


e|-----4--8--9---|-------4--8--9---|------4--8--9--|-----4--8--9----|
B|---------------|-----------------|---------------|----------------|
G|---------------|-----------------|---------------|----------------|
D|---------------|-----------------|--6------------|--6-----------6-|
A|-4-------------|--4------------4-|---------------|----------------|
E|---------------|-----------------|---------------|----------------|
     
Добавлено: 11.11.2013
Другие материалы по этой песне:
  • Аккорды и текст

Страница создана 06.08.2013
http://primanota.ru/misc-soundtrack/vanilla-sky-chords.htm
Привет, Гость.
Предлагаем пройти революционный курс по гитаре.
Подарок от PrimaNota.Ru, забирай!