PrimaNota.ru - самый крупный в мире бесплатный архив песенных текстов, аккордов, табулатур и нот


Misc Soundtrack - Twilight - Bellas Lullaby - таба, видео

Регистрация Запомнить меня
Войти через:  Facebook Google Twitter Vk Yandex Mail.ru

Misc Soundtrack - Twilight - Bellas Lullaby - таба, видео

Печатать
Просмотров: 281
 Pretty easy song no capo. 1st tab nice comments only plzz i will accept corrections and 
the tab according.

e|---3-5-7-----------------------------------------------|
B|------------3-3-1-1-0-0--------------------0-0---------|
G|------------------------------2--------0-0-------------|
D|---------------------------------2-2-------------------|
A|-------------------------------------------------------|
E|-------------------------------------------------------|


e|-----------------------------------0-0-----------------|
B|--3-3--1-1-----------------0-0-------------------------|
G|------------2--------0-0-------------------------------|
D|-----------------2-2-----------------------------------|
A|-------------------------------------------------------|
E|-------------------------------------------------------|

e|--2-----------------------------------0-0-4-4-4-4------|
B|-----3-3--1-1--0-0-----------1-1-----------------------|
G|-----------------------2-0-0---------------------------|
D|-------------------------------------------------------|
A|-------------------------------------------------------|
E|-------------------------------------------------------|

e|--3-0-0--------------0-0-3-3-7-7-10-10-----------------|
B|-----------3-0-----------------------------------------|
G|----------------2--------------------------------------|
D|-------------------------------------------------------|
A|-------------------------------------------------------|
E|-------------------------------------------------------|

e|-----17-17-15-12-12-10-7-5-----------------------------|
B|-------------------------------------------------------|
G|-------------------------------------------------------|
D|-------------------------------------------------------|
A|-------------------------------------------------------|
E|-------------------------------------------------------|

That's it u can repeat as much as u want and then to end it play 3,5,7 with more room between.
Добавлено: 09.05.2012
Другие материалы по этой песне:

Страница создана 24.04.2012
http://primanota.ru/misc-soundtrack/twilight-bellas-lullaby-chords.htm
Привет, Гость.
Предлагаем пройти революционный курс по гитаре.
Подарок от PrimaNota.Ru, забирай!