PrimaNota.ru - самый крупный в мире бесплатный архив песенных текстов, аккордов, табулатур и нот


Misc Soundtrack - Tum Mile - Dil Ibadat - таба, видео

Регистрация Запомнить меня
Войти через:  Facebook Google Twitter Vk Yandex Mail.ru

Misc Soundtrack - Tum Mile - Dil Ibadat - таба, видео

Печатать
Просмотров: 125
PTL

             Dil Ibadat
From the hindi movie Tum mile

Tabbed by: Sanjeev George,Basil George and Thomas George
Email:SanjeevGeorge123@yahoo.co.in

Submitted to and for www.ultimate-guitar.com, the site for all your tab needs

Please listen to song to understand better.
Please rate the tab with ur comments.


3 guitars
Gtr 1-acoustic
Gtr 2-electric arps,licks and leads
Gtr 3-electric rhythm


Tuning: standard


Intro and verse
Guitar 1 : Dm   Bb  keep playing

Guitar 2
e|---------------------------------|
B|----6-5---------6-5--------------|
G|--------7-----------7------------|
D|-----------7-----------8---------|play as required
A|---------------------------------|
E|---------------------------------|

Guitar 1 : Dm   Bb  keep playing

After verse 1
Solo 1 (Guitar 2)
e|----------------------------------------------------------------------|
B|----10--------------8/10--13-----------10--------------8/10-13-11v----|
G|-------12-10-9---------------12/14v-------12-10-9---------------------|
D|---------------12---------------------------------12------------------|
A|----------------------------------------------------------------------|
E|----------------------------------------------------------------------|

e|----------------------------------------------------------------------|
B|--------------------8/10--13------------------------------------------|
G|-----14r12-10-9---------------12/14v----14r12-10-12b14vvvv------------|
D|---------------12-----------------------------------------------------|
A|----------------------------------------------------------------------|
E|----------------------------------------------------------------------|

Guitar 2 licks during verse
e|---------------------------------------17b18-17vvvvvv----------|
B|---------------------------------------------------------------|
G|----14b15r14-14vvvv----\9/10\7v--------------------------------|
D|---------------------------------------------------------------|
A|---------------------------------------------------------------|
E|---------------------------------------------------------------|


Chorus
Guitar 3 
e|------------------------------------------------|
B|------------------------------------------------|
G|-----------------------------------------2------|x 2
D|-5/\-----7----------------3----5----3----2------|
A|-5/\-----5-----3----5-----1----3----1----0------|
E|-5/\-----------1----3---------------------------|

           D5    F5   G5    Bb5  C5   Bb5  A5

Guitar 2
e|-----------------------------------------|
B|----------15-13--------------------------|
G|-------14-------14-12--------------------|
D|----15----------------15-14-15v----------|
A|-----------------------------------------|
E|-----------------------------------------|

e|-----------------------------13-12v------|
B|-----------------------13-15-------------|
G|----15b17—15v----14-15-------------------|
D|-----------------------------------------|
A|-----------------------------------------|
E|-----------------------------------------|

e|-------12-13v---13b15—15b17vvv-----------|
B|----15-----------------------------------|
G|-----------------------------------------|
D|-----------------------------------------|
A|-----------------------------------------|
E|-----------------------------------------|

Verse repeat

Then Pre solo2

Guitar 1 : Dm   Bb

Guitar 3
e|-----------------|
B|-----------------|
G|--xxxx—-7~-------|
D|--xxxx—-7~-------|
A|--xxxx—-5~-------|
E|--xxxx-----------|

Guitar 2
e|--------------------------------|
B|--------------------------------|
G|----xxxx--13--------------------|
D|----xxxx-----14-12--------------|
A|-------------------14-15-12v----|
E|--------------------------------|


Solo 2 (guitar 2)
e|-------------------------------------------------------------|
B|-------------------------------------------------------------|
G|------------------------------------9h10\9----10/12vvv-------|
D|---------------------------7h8\7-----------------------------|
A|-------------------------------------------------------------|
E|----10vvv--xxxx—8/10vvv---------------------------------------|

e|---------------------------------------------------------------------------|
B|---------------------------------------------------------------------------|
G|-----------7/9—h10\7v--------17b19vvvv----17b19----14\12-------------------|
D|--------10-----------------------------------------------14h15\12vvv-------|
A|----/10--------------------------------------------------------------------|
E|---------------------------------------------------------------------------|


Stanza 1
Guitar 1 :ac. chords
Guitar 2
e|----17----17----------|
B|-------15----15-------|
G|----------------17----|x 2
D|----------------------|
A|----------------------|
E|----------------------|

e|--------------------------|
B|----15-17-18-18b20—18vv---|
G|--------------------------|
D|--------------------------|
A|--------------------------|
E|--------------------------|

e|----17----17----------12----17-------|
B|-------15----15----------15----15----|
G|----------------17-------------------|
D|-------------------------------------|
A|-------------------------------------|
E|-------------------------------------|

e|------------------------------------|
B|----15-17-18-17-15----15------------|
G|-------------------17----17-14vv----|
D|------------------------------------|
A|------------------------------------|
E|------------------------------------|

Then power chorus 2

Guitar 2
e|----------------------------------|
B|-------13-------------------------|
G|----14----14p12-------------------|
D|----------------14-15-14v---------|
A|----------------------------------|
E|----------------------------------|

e|----------------------------------|
B|----------15-13-------------------|
G|-------14-------14-12-------------|
D|----15----------------14-15-------|
A|----------------------------------|
E|----------------------------------|

e|----------------------------------------|
B|--------------------------15-18-17v-----|
G|----15b17-15v----14-15-17---------------|
D|----------------------------------------|
A|----------------------------------------|
E|----------------------------------------|

e|----------------------------------------|
B|----15-17-14v----17-15-17vv-------------|
G|----------------------------------------|
D|----------------------------------------|
A|----------------------------------------|
E|----------------------------------------|

Verse repeats


Solo 3 w some chorus (guitar 2 switches to solo just after it finishes the lick in the verse)
(Fade in)
e|----------------------------------------------|
B|--20b22vvvvvvvvv-----22r20p18-20b22vvvvv------|
G|----------------------------------------------|
D|----------------------------------------------|
A|----------------------------------------------|
E|----------------------------------------------|

e|----------------------------------------------|
B|----15v---13-15-13-15v----13-15-13------------|
G|-----------------------------------12v--------|
D|----------------------------------------------|
A|----------------------------------------------|
E|----------------------------------------------|

e|----------------------------------------------|
B|----------------------------------------------|
G|--10-12-12h14-14-14-14p12p10----10------------|
D|-----------------------------12----12v--------|
A|----------------------------------------------|
E|----------------------------------------------|

e|--------------------------13-15-13------------|
B|----15v---13-15--13-15v------------13v--------|
G|----------------------------------------------|
D|----------------------------------------------|
A|----------------------------------------------|
E|----------------------------------------------|

e|--------------20-------20---------------------|
B|--18-20-20b22----20b22----20b22r20p18---------|
G|--------------------------------------19------|
D|----------------------------------------------|
A|----------------------------------------------|
E|----------------------------------------------|

e|----------------------------------------------|
B|----15v---13-15-13-15v----13-15-13------------|
G|-----------------------------------12v--------|
D|----------------------------------------------|
A|----------------------------------------------|
E|----------------------------------------------|

e|----------------------------13----------------|
B|-------------------15-13-15----13h15----------|
G|----10-12-12/14-14----------------------------|
D|----------------------------------------------|
A|----------------------------------------------|
E|----------------------------------------------|

e|--------------------------------17-20vv--------|
B|----15v---13-15-13-15v----18-20----------------|
G|-----------------------------------------------|
D|-----------------------------------------------|
A|-----------------------------------------------|
E|-----------------------------------------------|

Guitar 3
e|--------------------------|
B|--------------------------|
G|--xxxx--10-x-12-x--xx-7---|
D|--xxxx--10-x-12-x--xx-7---|
A|--xxxx--8--x-10-x--xx-----|
E|--xxxx--------------------|

Backing rhythm   D5   F5   C5   G5   D5   
                 D5   F5   C5   Bb5  D5
                 D5   F5   C5   G5   D5
                 D5   F5   C5 

Then stanza 2 (same as 1)

Then Power chorus 3
Guitar 2 
e|-------------------------------|
B|-------13----------------------|
G|----14----14p12----------------|
D|----------------14-15-14v------|
A|-------------------------------|
E|-------------------------------|

e|-------------------------------|
B|----------15-13----------------|
G|-------14-------14-12----------|
D|----15----------------14-15----|
A|-------------------------------|
E|-------------------------------|

e|-----------------------------------------|
B|--------------------------15-18-17v------|
G|----15b17-15v----14-15-17----------------|
D|-----------------------------------------|
A|-----------------------------------------|
E|-----------------------------------------|

e|-----------------------------------------|
B|----18-20-20b22-22r20-18-----------------|
G|-----------------------------------------|
D|-----------------------------------------|
A|-----------------------------------------|
E|-----------------------------------------|

e|-----------------------------------------|
B|----17-18-17-----------------------------|
G|-------------19-17-----------------------|
D|-------------------19-17-15-17/19vvvv----|
A|-----------------------------------------|
E|-----------------------------------------|

End song
Guitar 2
e|--------------------------|
B|---------------------------|
G|--9vvvv~-------------------|
D|---------------------------|
A|---------------------------|
E|---------------------------|

Guitar 3
e|----------|
B|----------|
G|----7~----|
D|----7~----|
A|----5~----|
E|----------|


Guitar 1 acoustic chords
Intro

Verse
  Dm                         Bb
dil ibaadat kar raha hai, dhadakane meri sun
     Dm                                      Bb
tujhako main kar loon haasil lagi hai yahin dhun
   Dm                        Bb
jindagi ki shaak se loon kuchh haseen pal main chun
    Dm                                      Bb
tujhako main kar loon haasil lagi hai yahin dhun

solo 1

dil ibaadat kar raha hai, dhadakane meri sun
tujhako main kar loon haasil lagi hai yahin dhun
jindagi ki shaak se loon kuchh haseen pal main chun
tujhako main kar loon haasil lagi hai yahin dhun

Power Chorus 1
  Dm                  F         G
jo bhi jitane pal jiu, unhe tere sang jiu
    Bb    C                 Bb        A
jo bhi kal ho abb mera use tere sang jiu
  Dm                       F       G
jo bhi saansein main bharu unhe tere sang bharu
    Bb        C           Bb        A
chaahe jo ho raasta use tere sang chalu


verse
dil ibaadat kar raha hai, dhadakane meri sun
tujhako main kar loon haasil lagi hai yahin dhun

pre solo 2
solo 2

Stanza 1
  Dm                    Bb
mujhako de tu mit jaane abb khud se dil mil jaane
  Dm           Bb
kyun hai itana faasala
  Dm                       Bb
lamahe yeh phir na aane inko tu na de jaane
  Dm                Bb
tu mujhape khud ko de loota

Power Chorus 2 (Same as 1)
tujhe tujhase thod lun kahin khud se jod lun
meri jismo jaan pe aa teri khushbu odh loon
jo bhi saansein main bharu unhe tere sang bharu
chaahe jo ho raasta use tere sang chalu

Verse
dil ibaadat kar raha hai dhadakane meri sun
tujhako main kar loon haasil lagi hai yahin dhun

solo 3

Stanza 2 (same as 1 )
baahon mein de bas jaane sine mein de chhup jaane
tujh bin main jaau toh kahaan
tujhase hai mujhako paane yaadon ke woh najraane
ik jinape hak ho bas mera

Chorus 3
teri yaadon mein rahu tere khaabon mein jagu
mujhe dhundhein jab koyi teri aankhon mein milu
jo bhi saansein main bharu unhe tere sang bharu
chaahe jo ho raasta use tere sang chalu

Verse
dil ibaadat kar raha hai, dhadakane meri sun
tujhako main kar loon haasil lagi hai yahin dhun

ends on Dm


| /  slide up
| \  slide down
| h  hammer-on
| p  pull-off
| ~  let ring
| +  harmonic
| x  Mute note
| v  vibrato


===============================================================================
Добавлено: 28.07.2012
Другие материалы по этой песне:
  • Аккорды и текст

Страница создана 28.07.2012
http://primanota.ru/misc-soundtrack/tum-mile-dil-ibadat-chords.htm
Привет, Гость.
Предлагаем пройти революционный курс по гитаре.
Подарок от PrimaNota.Ru, забирай!