PrimaNota.ru - самый крупный в мире бесплатный архив песенных текстов, аккордов, табулатур и нот


Misc Soundtrack - Transformers - таба, видео

Регистрация Запомнить меня
Войти через:  Facebook Google Twitter Vk Yandex Mail.ru

Misc Soundtrack - Transformers - таба, видео

Печатать
Просмотров: 196
SONG: TRANSFORMERS THE MOVIE THEME SONG (80s Metal Style)
ARTIST: N.R.G
TABBED BY: TYSON CLINE
 
The song is tuned down half a step on the recording but I have
tabbed it in standard tuning. Feel free to tune down and
rearrange the notes and chords to fit with the half-step down.
This is mostly just the rhythm in the song.
 
 x mute
 / slide up
 
 (The drums start up)
 
I have no idea how the quick solo build up is played, its
probably some tapping but I dont even know where to begin.
 
INTRO RIFF:
 
Starts right after it says "Transformerrrrrrrrrrrrrrrrrs"
 
   F          G#               G# D#
e|------------------------------|-----------------------------|
B|------------------------------|-----------------------------|
G|------------------------------|-----------------------------|
D|-3-x--3-x-3-----3--3--6-------|-3-x--3-x-3----x-3--6--------|
A|-3-x--3-x-3-----3--3--6-------|-3-x--3-x-3----x-3--6-6------|
E|-1-x--1-x-1---1-1--1--4-------|-1-x--1-x-1----x-1--4-6------|
 
   F         G#
e|------------------------------|-----------------------------|
B|------------------------------|-----------------------------|
G|------------------------------|-----------------------------|
D|-3-x--3-x-3-------------------|-3-x--3-x--6-----------------|
A|-3-x--3-x-3-----3---4---3-----|-3-x--3-x--6-----------------|
E|-1-x--1-x-1---1---1---1---1---|-1-x--1-x--4-----------------|
 
Verse:
           "Something evils..." 
e|------------------------------|-----------------------------|
B|------------------------------|-----------------------------|
G|---hold-----------------------|-----------------------------|
D|-3----------------------------|-3-x--3-x-3----3-3-3-3--6----|
A|-3----------------------------|-3-x--3-x-3----3-3-3-3--6-6--|
E|-1----------------------------|-1-x--1-x-1----1-1-1-1--4-6--|
 
        "...nothing you can do"
e|------------------------------|-----------------------------|
B|------------------------------|-----------------------------|
G|------------------------------|-----------------------------|
D|------------------8-----------|------------------------6----|
A|------------------8-----------|------------------------6-6--|
E|------------------6-----------|------------------------4-6--|
 

e|------------------------------|-----------------------------|
B|------------------------------|-----------------------------|
G|---hold-----------------------|-----------------------------|
D|-3----------------------------|-3-x--3-x-3----3-3-3-3--6----|
A|-3----------------------------|-3-x--3-x-3----3-3-3-3--6-6--|
E|-1----------------------------|-1-x--1-x-1----1-1-1-1--4-6--|
 
     "...of the evil Unicron"
e|------------------------------|-----------------------------|
B|------------------------------|-----------------------------|
G|------------------------------|------------------6---5------|
D|------------------------------|-----8-------6----6---5------|
A|------------------------------|-----8---6---6----4---3------|
E|------------------------------|-----6---6---4---------------|
 
Extra Riff at the end of the 2nd Verse:
e|------------------------------|
B|------------------------------|
G|------------------------------|
D|--8-/-6------6----------------|
A|--8-/-6------6-6--------------|
E|--6-/-4------4-6--------------|
 

Chorus:
  "Transformerrrrrrrrrrrrrs"
e|------------------------------|-----------------------------|
B|------------------------------|-----------------------------|
G|------------------------------|-----------------------------|
D|-3-x--3-x-3-------------------|-3-x--3-x--------------------|
A|-3-x--3-x-3-----3---4---3-----|-3-x--3-x--6-----------------|
E|-1-x--1-x-1---1---1---1---1---|-1-x--1-x--6-----------------|
 
e|------------------------------|-----------------------------|
B|------------------------------|-----------------------------|
G|------------------------------|-----------------------------|
D|-3-x--3-x-3-------------------|-3-x--3-x--6-----------------|
A|-3-x--3-x-3-----3---4---3-----|-3-x--3-x--6-----------------|
E|-1-x--1-x-1---1---1---1---1---|-1-x--1-x--4-----------------|
 

Interlude/Solo:
 
 This is all I could get out of the solo, its just the beginning
 of it where it harmonizes with "robots in disguise".
 
  "The Decepticooooooooooons"
e|------------------------------|
B|------------------------------|
G|---7---------7---9-10---------|
D|--------------------------7-8-|
A|------------------------------|
E|------------------------------|
 
This tab is my own work sitting and listening to the song
several times. If you do it better, go ahead.
 
 -Tyson

     
Добавлено: 18.09.2013
Другие материалы по этой песне:
  • Аккорды и текст

Страница создана 18.09.2013
http://primanota.ru/misc-soundtrack/transformers-chords.htm
Привет, Гость.
Предлагаем пройти революционный курс по гитаре.
Подарок от PrimaNota.Ru, забирай!