PrimaNota.ru - самый крупный в мире бесплатный архив песенных текстов, аккордов, табулатур и нот


Misc Soundtrack - Theme From Mission: Impossible - таба

Регистрация Запомнить меня
Войти через:  Facebook Google Twitter Vk Yandex Mail.ru

Misc Soundtrack - Theme From Mission: Impossible - таба

Печатать
Просмотров: 203
                         THEME FROM MISSION: IMPOSSIBLE 
          As recorded by Larry Mullen, Adam Clayton and (Lalo Schifrin)
 (From the 1996 Album MUSIC FROM AND INSPIRED BY THE MOTION PICTURE MISSION: IMPOSSIBLE)

Music by Larry Mullen, Adam Clayton and (Lalo Schifrin)
Arranged by Larry Mullen with David Beal
Transcribed by C. Thomas
 *Samples from the original soundtrack recording of "Mission: Impossible Theme" composed
and conducted by Lalo Schifrin.


I've always loved this remake ever since I first heard it in 1996 when the new Mission:
Impossible movie premiered.  I bought the soundtrack immediately.  No idea why it took me so long to work it out.  

I suppose one of the most important things worth mentioning about this piece are the 
piano parts.  During most of the Gtr III (Piano) parts (such as the one that starts at 
the eighth measure and ends at the eleventh), there as actually another harmony on top 
that is the next octave up.  So the first octave shape, which is a G (G4 [the first G 
following middle C] and G5 [one octave above G4]), has one more octave on top.  In this 
case, G6.  I've added an example below of what this G octave shape would look like with 
all three octaves.  Hopefully it won't get messed up after I submit this.  


Example:

x 22 x 24 x 27    
     Goct   
  _________
 |_O_|_|_|_| 22
 |_|_|_|_|_|
 |_|_|_O_|_|
 |_|_|_|_|_|
 |_|_|_|_|_|
 |_|_|_|_|_O

As you can see, the highest G (G6) would be at a 27th fret.  I don't know if a 27 fret 
guitar is even manufactured.  I think I may have seen one, but it was around when I just 
starting to play and it may very well have been a 24 fretter.  That is however besides 
the point seeing as there are octave shapes that go even higher.  Because of this 
dilemma, I neglected to tab any of the third octaves with the exception of Part III 
(measures 38-45).  That part was accessible, so I put them in.  Part II does not have an 
octave added on to it but it's reprise (Part II Reprise) does.  There is a special note 
on measure 65 during the reprise.  To get these higher pitches, you'll need to use a 
pitch shifter or a similar pedal that offers octave harmonizing.  Or if you have a 
keyboardist, you can split the responsibilities.  If neither are an option, you can just 
omit the higher pitches.    

I have to admit that I took a little artist liberties with Gtr III during Part IV.  It 
sounds what is generally there, but I wouldn't guarantee it.  One thing I didn't note is 
that the part is constantly fading in and out.  This is a point where you can improvise 
a bit if you feel like it.

My last comment is on the bass.  I don't normally transcribe bass parts, but what would 
the Mission: Impossible Theme be with out the bass line.  I have not suggestions for the 
bass parts, just thought I'd mention that it is there after I've bombarded you with 
guitar details. 

Eventually I plan on doing the conclusion to this piece, Mission: Impossible Theme 
(Mission Accomplished). Hope you all enjoy this one.  

P.S. I apologize for the messed up tabs during Part V.



Gtr I (E A D G) - 'Bass'
Gtr II (E A D G B E) - 'Piano (Dry)'
Gtr III (E A D G B E) - 'Piano (Warm with Reverb)'
Gtr IV (E A D G B E) - 'Dist.'
Gtr V (E A D G B E) - 'Clean'

 Part I
  Q=94
 4/4
  Gtr II
  W           W
|----------|---------------|
|----------|-16tr15--------|
|----------|---------------|
|----------|---------------|
|----------|---------------|
|----------|---------------|
|
| Gtr I
| W           W
|----------|---------------|
|----------|---------------|
|----------|---------------|
|----------|---------------|


 2/4                              5/8
   +Q        +E       T  T  T  T    E  E    Q.
|--------------------------------|-15\---------------|
|-(16tr15)--(16tr15)-16-15-16-18-|-------------------|
|--------------------------------|-------------------|
|--------------------------------|-------------------|
|--------------------------------|-------------------|
|--------------------------------|-------------------|
|
|   H                               E.   S +E  E E
|--------------------------------|-------------------|
|--------------------------------|-------------------|
|--------------------------------|-------------------|
|--------------------------------|--3----3-(3)-6-8\--|


  W              W               W
|--------------|---------------|--------------|
|--------------|---------------|--------------|
|--------------|---------------|--------------|
|--------------|---------------|--------------|
|--------------|---------------|--------------|
|--------------|---------------|--------------|
|
| E +S  E. E E   E. S +E  E E    E +S  E. E E
|--------------|---------------|--------------|
|--------------|---------------|--------------|
|--------------|---------------|--------------|
|-3-(3)-3--1-2-|-3--3-(3)-6-8\-|-3-(3)-3--1-2-|


  Gtr III
   E  S  S  +S  S  e  e     E  S   S   +S  S  e  e
|-----------------18-20--|-------------------------|
|-20----20-(20)----x--x--|-20-----20--(20)---18-19-|
|--x-----x--------15-17--|--x------x----------x--x-|
|-17----17-(17)----------|-17-----17--(17)---15-16-|
|------------------------|-------------------------|
|------------------------|-------------------------|
|
|  E.    S  +E     E  E     E +S   E.         E  E
|------------------------|-------------------------|
|------------------------|-------------------------|
|------------------------|-------------------------|
|--3-----3--(3)----6--8\-|--3-(3)--3----------1--2-|


   E  S  S  +S  S  e  e     E  S   S   +S  S  e  e
|-----------------18-20--|-------------------------||
|-20----20-(20)----x--x--|-20-----20--(20)---18-19-||
|--x-----x--------15-17--|--x------x----------x--x-||
|-17----17-(17)----------|-17-----17--(17)---15-16-||
|------------------------|-------------------------||
|------------------------|-------------------------||
|
|  E.    S  +E     E  E     E +S   E.         E  E
|------------------------|-------------------------||
|------------------------|-------------------------||
|------------------------|-------------------------||
|--3-----3--(3)----6--8\-|--3-(3)--3----------1--2-||


 Part II
 4/4
  W                         W
|-------------------------|------------------------|
|-------------------------|------------------------|
|-------------------------|------------------------|
|-------------------------|------------------------|
|-------------------------|------------------------|
|-------------------------|------------------------|
|
| E. S +E  E +S  E S E E    E. S +E  E +S  E S E E
|-------------------------|------------------------|
|-------------------------|------------------------|
|-------------------------|------------------------|
|-3--3-(3)-3-(3)-3-3-6-8\-|-3--3-(3)-3-(3)-3-3-1-2-|


   S  S   E    +Q     +H              S  S  E   +Q    +H
|-18p15-\10---(10)---(10)----------|-18p15-\9---(9)---(9)---------|
|----------------------------------|------------------------------|
|----------------------------------|------------------------------|
|----------------------------------|------------------------------|
|----------------------------------|------------------------------|
|----------------------------------|------------------------------|
|
|  E.       S  +E  E  +S  E S E E     E.      S +E  E +S  E S E E
|----------------------------------|------------------------------|
|----------------------------------|------------------------------|
|----------------------------------|------------------------------|
|--3--------3--(3)-3--(3)-3-3-6-8\-|--3-------3-(3)-3-(3)-3-3-1-2-|


   S  S  E   +Q    +H             S E S  Q     H
|-18p15-\8---(8)---(8)----------|-6s8---------------------|
|-------------------------------|-------------------------|
|-------------------------------|-------------------------|
|-------------------------------|-------------------------|
|-------------------------------|-------------------------|
|-------------------------------|-------------------------|
|
|  E.      S +E  E +S  E S E E    E.  S +E  E +S  E S E E
|-------------------------------|-------------------------|
|-------------------------------|-------------------------|
|-------------------------------|-------------------------|
|--3-------3-(3)-3-(3)-3-3-6-8\-|-3---3-(3)-3-(3)-3-3-1-2-|


  Gtr III
   S  S   E    +Q     +H              S  S   E    +Q     +H
|----------------------------------|---------------------------------|
|-------/19---(19)---(19)----------|-------/18---(18)---(18)---------|
|-15p12----------------------------|-15p12---------------------------|
|----------------------------------|---------------------------------|
|----------------------------------|---------------------------------|
|----------------------------------|---------------------------------|
|
| Gtr IV
|  W                                  W
|----------------------------------|---------------------------------|
|----------------------------------|---------------------------------|
|----------------------------------|---------------------------------|
|----------------------------------|---------------------------------|
|----------------------------------|---------------------------------|
|----------------------------------|---------------------------------|
|
| Gtr I
|  E.       S  +E  E  +S  E S E E     E.       S  +E  E  +S  E S E E
|----------------------------------|---------------------------------|
|----------------------------------|---------------------------------|
|----------------------------------|---------------------------------|
|--3--------3--(3)-3--(3)-3-3-6-8\-|--3--------3--(3)-3--(3)-3-3-1-2-|


   S  S   E    +Q     +H              S  E S  Q    H
|----------------------------------|---------------------------|
|-------/17---(17)---(17)----------|-16s15---------------------|
|-15p12----------------------------|---------------------------|
|----------------------------------|---------------------------|
|----------------------------------|---------------------------|
|----------------------------------|---------------------------|
|
|  W                                  H            E. S +E  E
|----------------------------------|---------------------------|
|----------------------------------|---------------------------|
|----------------------------------|---------------------------|
|----------------------------------|---------------------------|
|----------------------------------|------------------1-(1)-2--|
|----------------------------------|---------------3-----------|
|
|  E.       S  +E  E  +S  E S E E     E.   S +E  E E. S +E  E
|----------------------------------|---------------------------|
|----------------------------------|---------------------------|
|----------------------------------|------------------1-(1)-2--|
|--3--------3--(3)-3--(3)-3-3-6-8\-|--3----3-(3)-3-3-----------|


   S   S   E    +Q     +H              S   S   E    +Q     +H
|-23--20-\15---(15)---(15)----------|-23--20-\14---(14)---(14)---------|
|-----------------------------------|----------------------------------|
|-----------------------------------|----------------------------------|
|-----------------------------------|----------------------------------|
|-----------------------------------|----------------------------------|
|-----------------------------------|----------------------------------|
|
|  >
|  W                                   W
|-----------------------------------|----------------------------------|
|-----------------------------------|----------------------------------|
|-----------------------------------|----------------------------------|
|-----------------------------------|----------------------------------|
|--3--------------------------------|----------------------------------|
|-----------------------------------|----------------------------------|
|
|  E.        S  +E  E  +S  E S E E     E.        S  +E  E  +S  E S E E
|-----------------------------------|----------------------------------|
|-----------------------------------|----------------------------------|
|--3---------3--(3)-3--(3)-3-3-6-8\-|--3---------3--(3)-3--(3)-3-3-1-2-|
|-----------------------------------|----------------------------------|


   S   S   E    +Q     +H              S  E S  Q     H
|-23--20-\13---(13)---(13)----------|-11s13---------------------|
|-----------------------------------|---------------------------|
|-----------------------------------|---------------------------|
|-----------------------------------|---------------------------|
|-----------------------------------|---------------------------|
|-----------------------------------|---------------------------|
|
|  W                                   W
|-----------------------------------|---------------------------|
|-----------------------------------|---------------------------|
|-----------------------------------|---------------------------|
|-----------------------------------|---------------------------|
|-----------------------------------|---------------------------|
|-----------------------------------|---------------------------|
|
|  E.        S  +E  E  +S  E S E E     E.   S +E  E +S  E S E E
|-----------------------------------|---------------------------|
|-----------------------------------|---------------------------|
|--3---------3--(3)-3--(3)-3-3-6-8\-|--3----3-(3)-3-(3)-3-3-1-2-|
|-----------------------------------|---------------------------|


  Gtr III
   S  S   E    +Q     +H               S  S   E    +Q     +H
|-----------------------------------|----------------------------------|
|-------/19---(19)---(19)-----------|-------/18---(18)---(18)----------|
|-15p12-----------------------------|-15p12----------------------------|
|-----------------------------------|----------------------------------|
|-----------------------------------|----------------------------------|
|-----------------------------------|----------------------------------|
|
| Gtr V
|  E.       S  +E  E  +S  E.   E E     E.       S  +E  E  +S  E.   E E
|-----------------------------------|----------------------------------|
|-----------------------------------|----------------------------------|
|-----------7--(7)--------8----7----|-----------7--(7)--------8----7---|
|--5---------------5--(5)--------5--|--5---------------5--(5)--------5-|
|-----------------------------------|----------------------------------|
|-----------------------------------|----------------------------------|
|
| Gtr I
|  E.       S  +E  E  +S  E  S E E     E.       S  +E  E  +S  E  S E E
|-----------------------------------|----------------------------------|
|-----------------------------------|----------------------------------|
|-----------------------------------|----------------------------------|
|--3--------3--(3)-3--(3)-3--3-6-8\-|--3--------3--(3)-3--(3)-3--3-1-2-|


   S  S   E    +Q     +H               S  E S  Q     H
|-----------------------------------|---------------------------|
|-------/17---(17)---(17)-----------|-16s15---------------------|
|-15p12-----------------------------|---------------------------|
|-----------------------------------|---------------------------|
|-----------------------------------|---------------------------|
|-----------------------------------|---------------------------|
|
|  E.       S  +E  E  +S  E.   E E     S  E S  Q     H
|-----------------------------------|---------------------------|
|-----------------------------------|---------------------------|
|-----------7--(7)--------8----7----|--8p=7---------------------|
|--5---------------5--(5)--------5--|---------------------------|
|-----------------------------------|---------------------------|
|-----------------------------------|---------------------------|
|
|  E.       S  +E  E  +S  E  S E E     E.   S +E  E +S  E S E E
|-----------------------------------|---------------------------|
|-----------------------------------|---------------------------|
|-----------------------------------|---------------------------|
|--3--------3--(3)-3--(3)-3--3-6-8\-|--3----3-(3)-3-(3)-3-3-1-2-|


  Gtr III
   S  S   E    +Q     +H              S  S  E   +Q    +H
|-18p15-\10---(10)---(10)----------|-18p15-\9---(9)---(9)---------|
|----------------------------------|------------------------------|
|----------------------------------|------------------------------|
|----------------------------------|------------------------------|
|----------------------------------|------------------------------|
|----------------------------------|------------------------------|
|
| Gtr I
|  E.       S  +E  E  +S  E S E E     E.      S +E  E +S  E S E E
|----------------------------------|------------------------------|
|----------------------------------|------------------------------|
|----------------------------------|------------------------------|
|--3--------3--(3)-3--(3)-3-3-6-8\-|--3-------3-(3)-3-(3)-3-3-1-2-|


   S  S  E   +Q    +H             S E S  Q     S   E S  e  e
|-18p15-\8---(8)---(8)----------|-6s8------------------18-20-|
|-------------------------------|-----------------20----x--x-|
|-------------------------------|------------------x---15-17-|
|-------------------------------|-----------------17---------|
|-------------------------------|----------------------------|
|-------------------------------|----------------------------|
|
|  E.      S +E  E +S  E S E E    E.  S +E  E +S   E S  E  E
|-------------------------------|----------------------------|
|-------------------------------|----------------------------|
|-------------------------------|----------------------------|
|--3-------3-(3)-3-(3)-3-3-6-8\-|-3---3-(3)-3-(3)--3-3--1--2-|


 Part III
                             Gtr IV
                                    |------3------|              |------3------|
   E. S Q  H      W           E  E  E   +E       +E   E       E  E   +E       +E
|-18\-----------|----------|------------------------------------------------------|
|--x------------|----------|------------------------------------------------------|
|-15\-----------|----------|------------------------------------------------------|
|---------------|----------|--------8b9r(8)b9r===(8)-------------8b9r(8)b9r===(8)-|
|---------------|----------|-10-10-------------------10------10-------------------|
|---------------|----------|------------------------------------------------------|
|
|                             ~~~~~~~~~~~~~~~~~~~~~~~~~~~~~~~~~~~~~~~~~~~~~~~~~~~~~
|  W              W           Q     E          E      S   E.     E          E
|---------------|----------|-19----18---------12-----12/-19-----18---------12-----|
|---------------|----------|------------------------------------------------------|
|---------------|----------|------------------------------------------------------|
|---------------|----------|------------------------------------------------------|


         |------3------|              |------3------|
   E  E  E   +E       +E   E       E  E   +E       +E
|-------------------------------------------------------|
|-------------------------------------------------------|
|-------------------------------------------------------|
|--------8b9r(8)b9r===(8)-------------8b9r(8)b9r===(8)--|
|-10-10-------------------10------10--------------------|
|-------------------------------------------------------|
|
|~~~~~~~~~~~~~~~~~~~~~~~~~~~~~~~~~~~~~~~~~~~~~~~~~~
|  Q     E          E      S   E.     E          E
|-19----18---------12-----12/-19-----18---------12------|
|-------------------------------------------------------|
|-------------------------------------------------------|
|-------------------------------------------------------|


  Gtr III
   ~~~~~~~~~~~~~~~~~~~~~~~~~~~~~~~~~~~~~~~~~~~~~~~~~~~~~~~~~~~~~~~~~~~~~~~~
   H           +Q       +S   S  S  S    H           +Q       +S   S  S  S
|-20----------(20)-----(20)----19-20-|-19----------(19)-----(19)----19-20-|
|---------------------------20-------|---------------------------20-------|
|-17----------(17)-----(17)----16-17-|-16----------(16)-----(16)----16-17-|
|---------------------------17-------|---------------------------17-------|
|-15----------(15)-----(15)----14-15-|-14----------(14)-----(14)----14-15-|
|---------------------------15-------|---------------------------15-------|
|
|  E. S +E  E  +S  E S   E      E       E. S +E  E  +S  E S   E      E
|--5--------5--(5)-------5-----------|--5--------5--(5)-------5-----------|
|-----5-(5)--------5-5----------5----|-----5-(5)--------5-5----------5----|
|------------------------------------|------------------------------------|
|------------------------------------|------------------------------------|


 ~~~~~~~~~~~~~~~~~~~~~~~~~~~~~~~~~~~~~~~~~~~~~~~~
   H           +Q       +S   S  S  S    S   S  E    Q     H
|-18----------(18)-----(18)----18-19-|-18--17---------------------------|
|---------------------------20-------|--------20------------------------|
|-15----------(15)-----(15)----15-16-|-15--14---------------------------|
|---------------------------17-------|--------17------------------------|
|-13----------(13)-----(13)----13-14-|-13--12---------------------------|
|---------------------------15-------|--------15------------------------|
|
|  E. S +E  E  +S  E S   E      E       E.       S +E  E +S  E S E E
|--5--------5--(5)-------5-----------|--5--------------5-(5)-----5------|
|-----5-(5)--------5-5----------5----|-----------5-(5)-------5-5---5----|
|------------------------------------|----------------------------------|
|------------------------------------|----------------------------------|


   ~~~~~~~~~~~~~~~~~~~~~~~~~~~~~~~~~~~~~~~~~~~~~~~~~~~~~~~~~~~~~~~~~~~~~~~~
   H           +Q       +S   S  S  S    H           +Q       +S   S  S  S
|-20----------(20)-----(20)----19-20-|-19----------(19)-----(19)----19-20-|
|---------------------------20-------|---------------------------20-------|
|-17----------(17)-----(17)----16-17-|-16----------(16)-----(16)----16-17-|
|---------------------------17-------|---------------------------17-------|
|-15----------(15)-----(15)----14-15-|-14----------(14)-----(14)----14-15-|
|---------------------------15-------|---------------------------15-------|
|
|  E. S +E  E  +S  E S   E      E       E. S +E  E  +S  E S   E      E
|--5--------5--(5)-------5-----------|--5--------5--(5)-------5-----------|
|-----5-(5)--------5-5----------5----|-----5-(5)--------5-5----------5----|
|------------------------------------|------------------------------------|
|------------------------------------|------------------------------------|


 ~~~~~~~~~~~~~~~~~~~~~~~~~~~~~~~~~~~~~~~~~~~~~~~~
   H           +Q       +S   S  S  S    S   S  E    Q     S   E  S  e  e
|-18----------(18)-----(18)----18-19-|-18--17----------------------18-20-----|
|---------------------------20-------|--------20-------------20-----x--x-----|
|-15----------(15)-----(15)----15-16-|-15--14-----------------x----15-17-----|
|---------------------------17-------|--------17-------------17--------------|
|-13----------(13)-----(13)----13-14-|-13--12--------------------------------|
|---------------------------15-------|--------15-----------------------------|
|
|  E. S +E  E  +S  E S   E      E       E.       S +E  E +S   E.    E  E
|--5--------5--(5)-------5-----------|--5--------------5-(5)-----------------|
|-----5-(5)--------5-5----------5----|-----------5-(5)-----------------------|
|------------------------------------|---------------------------------------|
|------------------------------------|------------------------3-----6--8\----|


   Part IV
    W                         W                       5x
||--------------------------|-------------------------||
||o-------------------------|------------------------o||
||--------------------------|-------------------------||
||--------------------------|-------------------------||
||o-------------------------|------------------------o||
||--------------------------|-------------------------||
|
|   E. S +E  E +S  E S E E    E. S +E  E +S  E S E E  5x
||--------------------------|-------------------------||
||o-------------------------|------------------------o||
||o-------------------------|------------------------o||
||--3--3-(3)-3-(3)-3-3-6-8\-|-3--3-(3)-3-(3)-3-3-1-2--||


   <
   ~~~~~~~~~~~~~~~~~~~~~~~~~~~~~~~~~~
   H.                  +Q        +W
|-----------------------------|--------------------------|
|-----------------------------|--------------------------|
|-19------------------(19)----|-(19)---------------------|
|-----------------------------|--------------------------|
|-----------------------------|--------------------------|
|-----------------------------|--------------------------|
|
|  E. S +E  E +S  E S   E  E      E. S +E  E +S  E S E E
|-----------------------------|--------------------------|
|-----------------------------|--------------------------|
|-----------------------------|--------------------------|
|--3--3-(3)-3-(3)-3-3---6--8\-|---3--3-(3)-3-(3)-3-3-1-2-|


 Part V
    ~~~~
   +W
|------6-8-6-(6)b8==(6)r(6)b8==(6)r(6)b8==(6)r(6)b8==(6)r(6)b8==(6)r(6)b8==(6)r|
|---8--------------------------------------------------------------------------|
|-(19)-------------------------------------------------------------------------|
|------------------------------------------------------------------------------|
|------------------------------------------------------------------------------|
|------------------------------------------------------------------------------|
|   S  S S S +S     +S  +S     +S  +S     +S  +S     +S  +S     +S  +S     +S
|
|   E.     S +E          E         +S      E          S   E          E
|------------------------------------------------------------------------------|
|------------------------------------------------------------------------------|
|---3------3-(3)---------3---------(3)-----3----------3---6----------8\--------|
|------------------------------------------------------------------------------|


    ~~~~~~~
   +W
|--(6)b8==(6)r(6)b8==(6)r(6)b8==(6)r(6)b8==(6)r(6)b8==(6)r(6)b8==(6)r(6)b8==(6)r(6)b8==(6)r=|
|-------------------------------------------------------------------------------------------|
|-(19)--------------------------------------------------------------------------------------|
|-------------------------------------------------------------------------------------------|
|-------------------------------------------------------------------------------------------|
|-------------------------------------------------------------------------------------------|
|  +S     +S  +S     +S  +S     +S  +S     +S  +S     +S  +S     +S  +S     +S  +S     +S
|
|   E.                S  +E          E         +S      E          S   E          E
|-------------------------------------------------------------------------------------------|
|-------------------------------------------------------------------------------------------|
|---3-----------------3--(3)---------3---------(3)-----3----------3---1----------2----------|
|-------------------------------------------------------------------------------------------|


  Gtr III
    ~~~~~~~
   +W
|--(6)b8==(6)r(6)b8==(6)r=(6)b8==(6)r(6)b8==(6)r(6)b8==(6)r(6)b8==(6)r(6)b8==(6)r(6)b8==(6)r|
|-------------------------------------------------------------------------------------------|
|-(19)--------------------------------------------------------------------------------------|
|-------------------------------------------------------------------------------------------|
|-------------------------------------------------------------------------------------------|
|-------------------------------------------------------------------------------------------|
|  +S     +S  +S     +S   +S     +S  +S     +S  +S     +S  +S     +S  +S     +S  +S     +S
|
| Gtr V
|   <
|   TP                     TP
|   Q                     +H.
|-------------------------------------------------------------------------------------------|
|--15--------------------(15)---------------------------------------------------------------|
|-------------------------------------------------------------------------------------------|
|-------------------------------------------------------------------------------------------|
|-------------------------------------------------------------------------------------------|
|-------------------------------------------------------------------------------------------|
|
| Gtr I
|   E.                S   +E          E         +S      E          S   E          E
|-------------------------------------------------------------------------------------------|
|-------------------------------------------------------------------------------------------|
|---3-----------------3---(3)---------3---------(3)-----3----------3---6----------8\--------|
|-------------------------------------------------------------------------------------------|


    ~~~~~~~
   +W
|--(6)b8==(6)r(6)b8==(6)r(6)b8==(6)r(6)b8==(6)r=(6)b8==(6)r(6)b8==(6)r=(6)b8==(6)r(6)b8==(6)r=|
|---------------------------------------------------------------------------------------------|
|-(19)----------------------------------------------------------------------------------------|
|---------------------------------------------------------------------------------------------|
|---------------------------------------------------------------------------------------------|
|---------------------------------------------------------------------------------------------|
|  +S     +S  +S     +S  +S     +S  +S     +S   +S     +S  +S     +S   +S     +S  +S     +S
|
|                                                >
|   TP                                           TP
|  +H                                           +Q                     +Q
|---------------------------------------------------------------------------------------------|
|-(15)-----------------------------------------(15)-------------------(15)\-------------------|
|---------------------------------------------------------------------------------------------|
|---------------------------------------------------------------------------------------------|
|---------------------------------------------------------------------------------------------|
|---------------------------------------------------------------------------------------------|
|
|   E.                S  +E          E          +S      E          S    E          E
|---------------------------------------------------------------------------------------------|
|---------------------------------------------------------------------------------------------|
|---3-----------------3--(3)---------3----------(3)-----3----------3----1----------2----------|
|---------------------------------------------------------------------------------------------|


  Gtr III
   ~~~~~~
   S      +S   +S       +S   +S       +S   +S       +S   +S       +S   +S       +S   +S       +S   +S       +S
|-18b20==(18)r(18)b20==(18)r(18)b20==(18)r(18)b20==(18)r(18)b20==(18)r(18)b20==(18)r(18)b20==(18)r(18)b20==(18)r|
|------------------------8---(8)--------------------------------------------------------------------------------|
|--7----------------------------------------7------------(7)----------------------------------------------------|
|---------------------------------------------------------------------------------------------------------------|
|---------------------------------------------------------------------------------------------------------------|
|---------------------------------------------------------------------------------------------------------------|
|  E.                    S   +E             E            +H
|
| Gtr I
|  E.                    S   +E             E            +S        E             S    E             E
|---------------------------------------------------------------------------------------------------------------|
|---------------------------------------------------------------------------------------------------------------|
|---------------------------------------------------------------------------------------------------------------|
|--3---------------------3---(3)------------3------------(3)-------3-------------3----6-------------8\----------|


    ~~~~~~~~
   +S       +S   +S       +S   +S       +S   +S       +S   +S       +S   +S       +S   +S       +S   +S       +S
|-(18)b20==(18)r(18)b20==(18)r(18)b20==(18)r(18)b20==(18)r(18)b20==(18)r(18)b20==(18)r(18)b20==(18)r(18)b20==(18)r=|
|------------------------------------------------------------------------------------------------------------------|
|--(7)-------------------------------------------------------------------------------------------------------------|
|------------------------------------------------------------------------------------------------------------------|
|------------------------------------------------------------------------------------------------------------------|
|------------------------------------------------------------------------------------------------------------------|
|  +W
|
|   E.                     S   +E             E            +S        E             S    E             E
|------------------------------------------------------------------------------------------------------------------|
|------------------------------------------------------------------------------------------------------------------|
|------------------------------------------------------------------------------------------------------------------|
|---3----------------------3---(3)------------3------------(3)-------3-------------3----1-------------2------------|


    ~~~~~~~~
   +S       +S   +S       +S   +S       +S   +S       +S   +S       +S   +S       +S   +S       +S   +S       +S
|-(18)b20==(18)r(18)b20==(18)r(18)b20==(18)r(18)b20==(18)r(18)b20==(18)r(18)b20==(18)r(18)b20==(18)r(18)b20==(18)r|
|-----------------------------------------------------------------------------------------------------------------|
|--(7)------------------------------------------------------------------------------------------------------------|
|-----------------------------------------------------------------------------------------------------------------|
|-----------------------------------------------------------------------------------------------------------------|
|-----------------------------------------------------------------------------------------------------------------|
|  +W
|
|   E.                     S   +E             E            +S        E             S    E             E
|-----------------------------------------------------------------------------------------------------------------|
|-----------------------------------------------------------------------------------------------------------------|
|-----------------------------------------------------------------------------------------------------------------|
|---3----------------------3---(3)------------3------------(3)-------3-------------3----6-------------8\----------|


    ~~~~~~~~
   +S       +S   +S       +S   +S       +S   +S       +S    S   E S  e  e
|-(18)b20==(18)r(18)b20==(18)r(18)b20==(18)r(18)b20==(18)r----------18-20--|
|--------------------------------------------------------------20----x--x--|
|--(7)----------------------------------------------------------x---15-17--|
|--------------------------------------------------------------17----------|
|--------------------------------------------------------------------------|
|--------------------------------------------------------------------------|
|  +H                                                       H
|
|   E.                     S   +E             E            +S   E S  E  E
|--------------------------------------------------------------------------|
|--------------------------------------------------------------------------|
|--------------------------------------------------------------------------|
|---3----------------------3---(3)------------3------------(3)--3-3--6--8\-|


 Part II Reprise
  Gtr III
   S  S   E    +Q     +H              S  S  E   +Q    +H
|-18p15-\10---(10)---(10)----------|-18p15-\9---(9)---(9)---------|
|----------------------------------|------------------------------|
|----------------------------------|------------------------------|
|----------------------------------|------------------------------|
|----------------------------------|------------------------------|
|----------------------------------|------------------------------|
|
| Gtr I
|  E.       S  +E  E  +S  E S E E     E.      S +E  E +S  E S E E
|----------------------------------|------------------------------|
|----------------------------------|------------------------------|
|----------------------------------|------------------------------|
|--3--------3--(3)-3--(3)-3-3-6-8\-|--3-------3-(3)-3-(3)-3-3-1-2-|


   S  S  E   +Q    +H             S E S  Q     H
|-18p15-\8---(8)---(8)----------|-6s*8--------------------|
|-------------------------------|-------------------------|
|-------------------------------|-------------------------|
|-------------------------------|-------------------------|
|-------------------------------|-------------------------|
|-------------------------------|-------------------------|
|
|  E.      S +E  E +S  E S E E    E.  S +E  E +S  E S E E
|-------------------------------|-------------------------|
|-------------------------------|-------------------------|
|-------------------------------|-------------------------|
|--3-------3-(3)-3-(3)-3-3-6-8\-|-3---3-(3)-3-(3)-3-3-1-2-|
                                    *The octave harmony on top of this 
                                     part (not noted) holds the C for 
                                     the remainder of the measure.


   S  S   E    +Q     +H              S  S   E    +Q     +H
|----------------------------------|---------------------------------|
|-------/19---(19)---(19)----------|-------/18---(18)---(18)---------|
|-15p12----------------------------|-15p12---------------------------|
|----------------------------------|---------------------------------|
|----------------------------------|---------------------------------|
|----------------------------------|---------------------------------|
|
|  E.       S  +E  E  +S  E S E E     E.       S  +E  E  +S  E S E E
|----------------------------------|---------------------------------|
|----------------------------------|---------------------------------|
|----------------------------------|---------------------------------|
|--3--------3--(3)-3--(3)-3-3-6-8\-|--3--------3--(3)-3--(3)-3-3-1-2-|


   S  S   E    +Q     +H              S  E S  Q    H
|----------------------------------|---------------------------|
|-------/17---(17)---(17)----------|-16s15---------------------|
|-15p12----------------------------|---------------------------|
|----------------------------------|---------------------------|
|----------------------------------|---------------------------|
|----------------------------------|---------------------------|
|
|  E.       S  +E  E  +S  E S E E     E.   S +E  E E. S +E  E
|----------------------------------|---------------------------|
|----------------------------------|---------------------------|
|----------------------------------|------------------1-(1)-2--|
|--3--------3--(3)-3--(3)-3-3-6-8\-|--3----3-(3)-3-3-----------|


  Gtr III
   S   S   E    +Q     +H               S   S   E    +Q     +H
|-23--20-\15---(15)---(15)-----------|-23--20-\14---(14)---(14)----------|
|------------------------------------|-----------------------------------|
|------------------------------------|-----------------------------------|
|------------------------------------|-----------------------------------|
|------------------------------------|-----------------------------------|
|------------------------------------|-----------------------------------|
|
| Gtr V
|  E.        S  +E  E  +S  E.   E E     E.        S  +E  E  +S  E.   E E
|------------------------------------|-----------------------------------|
|------------8--(8)--------8----7----|------------8--(8)--------8----7---|
|--5----------------5--(5)--------5--|--5----------------5--(5)--------5-|
|------------------------------------|-----------------------------------|
|------------------------------------|-----------------------------------|
|------------------------------------|-----------------------------------|
|
| Gtr I
|  E.        S  +E  E  +S  E  S E E     E.        S  +E  E  +S  E  S E E
|------------------------------------|-----------------------------------|
|------------------------------------|-----------------------------------|
|--3---------3--(3)-3--(3)-3--3-6-8\-|--3---------3--(3)-3--(3)-3--3-1-2-|
|------------------------------------|-----------------------------------|


   S   S   E    +Q     +H               S  E S  Q     H
|-23--20-\13---(13)---(13)-----------|-11s13----------------------|
|------------------------------------|----------------------------|
|------------------------------------|----------------------------|
|------------------------------------|----------------------------|
|------------------------------------|----------------------------|
|------------------------------------|----------------------------|
|
|  E.        S  +E  E  +S  E.   E E     E.   S +E  E +S  E.   E E
|------------------------------------|----------------------------|
|------------8--(8)--------8----7----|-------8-(8)-------8----7---|
|--5----------------5--(5)--------5--|--5----------5-(5)--------5-|
|------------------------------------|----------------------------|
|------------------------------------|----------------------------|
|------------------------------------|----------------------------|
|
|  E.        S  +E  E  +S  E  S E E     E.   S +E  E +S  E  S E E
|------------------------------------|----------------------------|
|------------------------------------|----------------------------|
|--3---------3--(3)-3--(3)-3--3-6-8\-|--3----3-(3)-3-(3)-3--3-1-2-|
|------------------------------------|----------------------------|


   S  S   E    +Q     +H
|-----------------------------------|
|-------/19---(19)---(19)-----------|
|-15p12-----------------------------|
|-----------------------------------|
|-----------------------------------|
|-----------------------------------|
|
|  E.       S  +E  E  +S  E.   E E
|-----------------------------------|
|-----------------------------------|
|-----------7--(7)--------8----7----|
|--5---------------5--(5)--------5--|
|-----------------------------------|
|-----------------------------------|
|
|  E.       S  +E  E  +S  E  S E E
|-----------------------------------|
|-----------------------------------|
|-----------------------------------|
|--3--------3--(3)-3--(3)-3--3-6-8\-|


   S  S   E    +Q     +H              S  S   E    +Q     +H
|----------------------------------|------------------------------------|
|-------/18---(18)---(18)----------|-------/17---(17)---(17)------------|
|-15p12----------------------------|-15p12------------------------------|
|----------------------------------|------------------------------------|
|----------------------------------|------------------------------------|
|----------------------------------|------------------------------------|
|
|  E.       S  +E  E  +S  E.   E E    E.       S  +E  E  +S  E.   E E
|----------------------------------|------------------------------------|
|----------------------------------|------------------------------------|
|-----------7--(7)--------8----7---|-----------7--(7)--------8----7-----|
|--5---------------5--(5)--------5-|--5---------------5--(5)--------5---|
|----------------------------------|------------------------------------|
|----------------------------------|------------------------------------|
|
|  E.       S  +E  E  +S  E  S E E    E.       S  +E  E  +S  E  S E E
|----------------------------------|------------------------------------|
|----------------------------------|------------------------------------|
|----------------------------------|------------------------------------|
|--3--------3--(3)-3--(3)-3--3-1-2-|--3--------3--(3)-3--(3)-3--3-6-8\--|


   S  S  E    S  e  S  E   E  S  e  S
|---------------18-20-----------18-20-|
|-16s15-20---20--x--x-----20-20--x--x-|
|--------x----x-15-17------x--x-15-17-|
|-------17---17-----------17-17-------|
|-------------------------------------|
|-------------------------------------|
|
|  S  E    S  Q        H
|-------------------------------------|
|-------------------------------------|
|--8p=7-------------------------------|
|-------------------------------------|
|-------------------------------------|
|-------------------------------------|
|
|  E     E    S  E  S +E   E  S  E  S
|-------------------------------------|
|-------------------------------------|
|-------------------------------------|
|--------3----3--6--8-(8)--3--3--6--8-|


   +S   e S E  S  S  +H        +W            +W
|-(20)-18-------------------|-------------|---------*|
|-------x-----18-20-(20)----|-(20)--------|-(20)----*|
|-(17)-15------x--x---------|-------------|---------*|
|-------------15-17-(17)----|-(17)--------|-(17)----*|
|---------------------------|-------------|---------*|
|---------------------------|-------------|---------*|
|
|   W                           W             W
|---------------------------|-------------|---------*|
|---------------------------|-------------|---------*|
|---------------------------|-------------|---------*|
|---------------------------|-------------|---------*|
|---------------------------|-------------|---------*|
|---------------------------|-------------|---------*|
|
|  +S   E S E  S  S  +H        +W            +W
|---------------------------|-------------|---------*|
|---------------------------|-------------|---------*|
|---------------------------|-------------|---------*|
|--(8)--6------1--3--(3)----|--(3)--------|--(3)----*|


Duration Legend
---------------
W - whole; H - half; Q - quarter; E - 8th; S - 16th; T - 32nd; X - 64th; a - acciaccatura
+ - note tied to previous; . - note dotted; .. - note double dotted
Uncapitalized letters represent notes that are staccato (1/2 duration)
Irregular groupings are notated above the duration line
Duration letters will always appear directly above the note/fret number it represents the
duration for.  Duration letters with no fret number below them represent rests.  Multi-
bar rests are notated in the form Wxn, where n is the number of bars to rest for.  Low
melody durations appear below the staff

Tablature Legend
----------------
 h   - hammer-on
 p   - pull-off
 b   - bend
 pb  - pre-bend
 r   - bend release (if no number after the r, then release immediately)
 /\  - slide into or out of (from/to "nowhere")
 s   - legato slide
 S   - shift slide
  - natural harmonic
[n]  - artificial harmonic
n(n) - tapped harmonic
 ~   - vibrato
 tr  - trill
 T   - tap
 TP  - trem. picking
 PM  - palm muting
\n/  - tremolo bar dip; n = amount to dip
 \n  - tremolo bar down
 n/  - tremolo bar up
/n\  - tremolo bar inverted dip
 =   - hold bend; also acts as connecting device for hammers/pulls
 <>  - volume swell (louder/softer)
 x   - on rhythm slash represents muted slash
 o   - on rhythm slash represents single note slash

Misc Legend
-----------
 |  - bar
||  - double bar
||o - repeat start
o|| - repeat end
*|  - double bar (ending)
 :  - bar (freetime)
 $  - Segno
 &  - Coda
Tempo markers -  = BPM(8/16=s8/s16), where s8 = swing 8ths, s16 = swing 16ths

Добавлено: 16.11.2013
Другие материалы по этой песне:
  • Аккорды и текст

Страница создана 16.11.2013
http://primanota.ru/misc-soundtrack/theme-from-mission-impossible-chords.htm
Привет, Гость.
Предлагаем пройти революционный курс по гитаре.
Подарок от PrimaNota.Ru, забирай!